  0
SECTION
  2
HEADER
  0
ENDSEC
  0
SECTION
  2
TABLES
  0
TABLE
  2
LTYPE
 70
    22
  0
LTYPE
  2
CONTINUOUS
 70
    64
  3
Solid line
 72
    65
 73
     0
 40
0.000000
  0
LTYPE
  2
DASHED
 70
    64
  3
__ __ __ __ __ __ __ __ __ __ __ __ __ __ __
 72
    65
 73
     2
 40
3.500000
 49
2.000000
 49
-1.500000
  0
LTYPE
  2
CENTER
 70
    64
  3
____ _ ____ _ ____ _ ____ _ ____ _ ____ _ ____
 72
    65
 73
     4
 40
17.500000
 49
13.000000
 49
-1.500000
 49
1.500000
 49
-1.500000
  0
LTYPE
  2
PHANTOM
 70
    64
  3
_____ _ _ _____ _ _ _____ _ _ _____ _ _ ____  
 72
    65
 73
     6
 40
15.500000
 49
8.000000
 49
-1.500000
 49
1.500000
 49
-1.500000
 49
1.500000
 49
-1.500000
  0
LTYPE
  2
DOT
 70
    64
  3
. . . . . . . . . . . . . . . . . . . . . . . .
 72
    65
 73
     2
 40
0.25
 49
0.0
 49
-0.25
  0
ENDTAB
  0
TABLE
  2
LAYER
 70
     1
  0
LAYER
  2
0
 70
     0
 62
     7
  6
CONTINUOUS
  0
ENDTAB
  0
TABLE
  2
STYLE
 70
     1
  0
STYLE
  2
STANDARD
 70
     0
 40
0.000000
 41
1.000000
 50
0.000000
 71
     0
 42
0.200000
  3
txt
  0
ENDTAB
  0
TABLE
  2
VIEW
 70
     0
  0
ENDTAB
  0
ENDSEC
  0
SECTION
  2
BLOCKS
  0
ENDSEC
  0
SECTION
  2
ENTITIES
  0
LINE
  8
0
  6
CONTINUOUS
 62
     7
 10
-6.6999998
 20
0
 11
6.6999998
 21
0
  0
LINE
  8
0
  6
CENTER
 62
     7
 10
100
 20
6.1999998
 11
100
 21
-1
  0
LINE
  8
0
  6
CONTINUOUS
 62
     7
 10
-6.6999998
 20
5.1999998
 11
6.6999998
 21
5.1999998
  0
LINE
  8
0
  6
CONTINUOUS
 62
     7
 10
7
 20
4.9000001
 11
7
 21
4.3797026
  0
LINE
  8
0
  6
CONTINUOUS
 62
     7
 10
-7
 20
4.9000001
 11
-7
 21
4.3797026
  0
LINE
  8
0
  6
CONTINUOUS
 62
     7
 10
-7
 20
0.29999992
 11
-6.7000003
 21
0
  0
LINE
  8
0
  6
CONTINUOUS
 62
     7
 10
6.7000003
 20
0
 11
7
 21
0.29999992
  0
LINE
  8
0
  6
CONTINUOUS
 62
     7
 10
6.6999998
 20
5.2000003
 11
7
 21
4.9000001
  0
LINE
  8
0
  6
CONTINUOUS
 62
     7
 10
-6.6999998
 20
5.2000003
 11
-7
 21
4.9000001
  0
LINE
  8
0
  6
DASHED
 62
     7
 10
41.75
 20
2
 11
41.75
 21
0
  0
LINE
  8
0
  6
DASHED
 62
     7
 10
38.25
 20
2
 11
38.25
 21
0
  0
LINE
  8
0
  6
DASHED
 62
     7
 10
37
 20
5.1999998
 11
37
 21
2
  0
LINE
  8
0
  6
DASHED
 62
     7
 10
43
 20
5.1999998
 11
43
 21
2
  0
LINE
  8
0
  6
DASHED
 62
     7
 10
37
 20
2
 11
43
 21
2
  0
LINE
  8
0
  6
CONTINUOUS
 62
     7
 10
-7
 20
2.8202975
 11
-7
 21
0.30000001
  0
LINE
  8
0
  6
CONTINUOUS
 62
     7
 10
7
 20
2.8202975
 11
7
 21
0.30000001
  0
LINE
  8
0
  6
CONTINUOUS
 62
     7
 10
-12.2
 20
9
 11
12.2
 21
9
  0
LINE
  8
0
  6
CONTINUOUS
 62
     7
 10
-12.5
 20
8.6999998
 11
-12.5
 21
2.3
  0
LINE
  8
0
  6
CONTINUOUS
 62
     7
 10
12.5
 20
8.6999998
 11
12.5
 21
2.3
  0
LINE
  8
0
  6
CONTINUOUS
 62
     7
 10
7.3000002
 20
2
 11
12.2
 21
2
  0
LINE
  8
0
  6
CONTINUOUS
 62
     7
 10
-12.5
 20
8.6999998
 11
-12.2
 21
9
  0
LINE
  8
0
  6
CONTINUOUS
 62
     7
 10
12.2
 20
9
 11
12.5
 21
8.6999998
  0
LINE
  8
0
  6
CONTINUOUS
 62
     7
 10
12.2
 20
2.0000002
 11
12.5
 21
2.3
  0
LINE
  8
0
  6
CONTINUOUS
 62
     7
 10
7.3000002
 20
2.0000002
 11
7
 21
2.3
  0
LINE
  8
0
  6
CONTINUOUS
 62
     7
 10
-7.3000002
 20
2.0000002
 11
-7
 21
2.3
  0
LINE
  8
0
  6
CONTINUOUS
 62
     7
 10
-7.3000002
 20
2
 11
-12.2
 21
2
  0
LINE
  8
0
  6
CONTINUOUS
 62
     7
 10
-12.2
 20
2.0000002
 11
-12.5
 21
2.3
  0
LINE
  8
0
  6
CONTINUOUS
 62
     7
 10
-11.3
 20
8.6999998
 11
11.3
 21
8.6999998
  0
LINE
  8
0
  6
CONTINUOUS
 62
     7
 10
-12.3
 20
7.6999998
 11
-12.3
 21
2.5
  0
LINE
  8
0
  6
CONTINUOUS
 62
     7
 10
12.3
 20
7.6999998
 11
12.3
 21
2.5
  0
LINE
  8
0
  6
CONTINUOUS
 62
     7
 10
-12.3
 20
7.6999998
 11
-11.3
 21
8.6999998
  0
LINE
  8
0
  6
CONTINUOUS
 62
     7
 10
11.3
 20
8.6999998
 11
12.3
 21
7.6999998
  0
LINE
  8
0
  6
CONTINUOUS
 62
     7
 10
-12.3
 20
2.5
 11
-11.8
 21
2.0000002
  0
LINE
  8
0
  6
CONTINUOUS
 62
     7
 10
12.3
 20
2.5
 11
11.8
 21
2.0000002
  0
LINE
  8
0
  6
CONTINUOUS
 62
     7
 10
7.5999999
 20
4.5999999
 11
7.5999999
 21
2
  0
LINE
  8
0
  6
CONTINUOUS
 62
     7
 10
-7.5999999
 20
4.5999999
 11
-7.5999999
 21
2
  0
LINE
  8
0
  6
CONTINUOUS
 62
     7
 10
-6.4000001
 20
5.8000002
 11
6.4000001
 21
5.8000002
  0
LINE
  8
0
  6
CONTINUOUS
 62
     7
 10
30
 20
5.1999998
 11
30
 21
0
  0
LINE
  8
0
  6
CONTINUOUS
 62
     7
 10
110
 20
5.1999998
 11
110
 21
0
  0
LINE
  8
0
  6
CONTINUOUS
 62
     7
 10
30
 20
0
 11
110
 21
0
  0
LINE
  8
0
  6
CONTINUOUS
 62
     7
 10
30
 20
2.8202975
 11
49.549999
 21
2.8202975
  0
LINE
  8
0
  6
CONTINUOUS
 62
     7
 10
30
 20
4.3797026
 11
49.549999
 21
4.3797026
  0
LINE
  8
0
  6
CONTINUOUS
 62
     7
 10
30
 20
5.1999998
 11
49.549999
 21
5.1999998
  0
LINE
  8
0
  6
DASHED
 62
     7
 10
-3
 20
5.1999998
 11
-3
 21
2
  0
LINE
  8
0
  6
DASHED
 62
     7
 10
-3
 20
2
 11
3
 21
2
  0
LINE
  8
0
  6
DASHED
 62
     7
 10
-1.75
 20
2
 11
-1.75
 21
0
  0
LINE
  8
0
  6
CENTER
 62
     7
 10
0
 20
10
 11
0
 21
-1
  0
LINE
  8
0
  6
DASHED
 62
     7
 10
1.75
 20
2
 11
1.75
 21
0
  0
LINE
  8
0
  6
DASHED
 62
     7
 10
3
 20
5.1999998
 11
3
 21
2
  0
LINE
  8
0
  6
CENTER
 62
     7
 10
40
 20
6.1999998
 11
40
 21
-1
  0
LINE
  8
0
  6
CENTER
 62
     7
 10
70
 20
6.1999998
 11
70
 21
-1
  0
LINE
  8
0
  6
CONTINUOUS
 62
     7
 10
49.549999
 20
2
 11
90.449997
 21
2
  0
LINE
  8
0
  6
CONTINUOUS
 62
     7
 10
54.849998
 20
9
 11
85.149994
 21
9
  0
LINE
  8
0
  6
CONTINUOUS
 62
     7
 10
90.449997
 20
2.8202975
 11
110
 21
2.8202975
  0
LINE
  8
0
  6
CONTINUOUS
 62
     7
 10
90.449997
 20
4.3797026
 11
110
 21
4.3797026
  0
LINE
  8
0
  6
CONTINUOUS
 62
     7
 10
54.849998
 20
9
 11
54.849998
 21
2
  0
LINE
  8
0
  6
CONTINUOUS
 62
     7
 10
85.149994
 20
9
 11
85.149994
 21
2
  0
LINE
  8
0
  6
CENTER
 62
     7
 10
61
 20
9.8428335
 11
61
 21
4.3247027
  0
LINE
  8
0
  6
DASHED
 62
     7
 10
59
 20
9
 11
59
 21
5.5
  0
LINE
  8
0
  6
DASHED
 62
     7
 10
63
 20
9
 11
63
 21
5.5
  0
LINE
  8
0
  6
DASHED
 62
     7
 10
59.299999
 20
9
 11
59.299999
 21
5.5
  0
LINE
  8
0
  6
DASHED
 62
     7
 10
62.699997
 20
9
 11
62.699997
 21
5.5
  0
LINE
  8
0
  6
CONTINUOUS
 62
     7
 10
51.049999
 20
8.6999998
 11
51.049999
 21
2
  0
LINE
  8
0
  6
CONTINUOUS
 62
     7
 10
50.049999
 20
8.6999998
 11
50.049999
 21
2
  0
LINE
  8
0
  6
CONTINUOUS
 62
     7
 10
49.549999
 20
5.8000002
 11
49.549999
 21
2
  0
LINE
  8
0
  6
CONTINUOUS
 62
     7
 10
49.549999
 20
5.8000002
 11
49.825218
 21
5.8000002
  0
LINE
  8
0
  6
CONTINUOUS
 62
     7
 10
50.049999
 20
8.6999998
 11
54.849998
 21
8.6999998
  0
LINE
  8
0
  6
CONTINUOUS
 62
     7
 10
89.949997
 20
8.6999998
 11
85.149994
 21
8.6999998
  0
LINE
  8
0
  6
CONTINUOUS
 62
     7
 10
88.949997
 20
8.6999998
 11
88.949997
 21
2
  0
LINE
  8
0
  6
CONTINUOUS
 62
     7
 10
89.949997
 20
8.6999998
 11
89.949997
 21
2
  0
LINE
  8
0
  6
CONTINUOUS
 62
     7
 10
90.449997
 20
5.8000002
 11
90.174774
 21
5.8000002
  0
LINE
  8
0
  6
CONTINUOUS
 62
     7
 10
90.449997
 20
5.8000002
 11
90.449997
 21
2
  0
LINE
  8
0
  6
CONTINUOUS
 62
     7
 10
90.449997
 20
5.1999998
 11
110
 21
5.1999998
  0
LINE
  8
0
  6
CENTER
 62
     7
 10
29
 20
50
 11
111
 21
50
  0
LINE
  8
0
  6
CONTINUOUS
 62
     7
 10
30
 20
57
 11
30
 21
43
  0
LINE
  8
0
  6
CONTINUOUS
 62
     7
 10
110
 20
57
 11
110
 21
43
  0
LINE
  8
0
  6
CONTINUOUS
 62
     7
 10
30
 20
57
 11
49.549999
 21
57
  0
LINE
  8
0
  6
CONTINUOUS
 62
     7
 10
30
 20
43
 11
49.549999
 21
43
  0
LINE
  8
0
  6
CENTER
 62
     7
 10
100
 20
54
 11
100
 21
46
  0
LINE
  8
0
  6
CENTER
 62
     7
 10
40
 20
54
 11
40
 21
46
  0
LINE
  8
0
  6
CENTER
 62
     7
 10
70
 20
54
 11
70
 21
46
  0
LINE
  8
0
  6
CONTINUOUS
 62
     7
 10
90.449997
 20
43
 11
110
 21
43
  0
LINE
  8
0
  6
CONTINUOUS
 62
     7
 10
90.449997
 20
57
 11
110
 21
57
  0
LINE
  8
0
  6
CONTINUOUS
 62
     7
 10
54.849998
 20
37.5
 11
85.150002
 21
37.5
  0
LINE
  8
0
  6
CONTINUOUS
 62
     7
 10
54.849998
 20
62.5
 11
85.150002
 21
62.5
  0
LINE
  8
0
  6
CONTINUOUS
 62
     7
 10
54.849998
 20
62.5
 11
54.849998
 21
37.5
  0
LINE
  8
0
  6
CONTINUOUS
 62
     7
 10
85.150002
 20
62.5
 11
85.150002
 21
37.5
  0
LINE
  8
0
  6
CONTINUOUS
 62
     7
 10
51.049999
 20
62.299999
 11
51.049999
 21
37.700001
  0
LINE
  8
0
  6
CONTINUOUS
 62
     7
 10
50.049999
 20
62
 11
50.049999
 21
38
  0
LINE
  8
0
  6
CONTINUOUS
 62
     7
 10
49.549999
 20
57.599998
 11
49.549999
 21
42.400002
  0
LINE
  8
0
  6
CONTINUOUS
 62
     7
 10
51.049999
 20
37.700001
 11
54.849998
 21
37.700001
  0
LINE
  8
0
  6
CONTINUOUS
 62
     7
 10
51.049999
 20
62.299999
 11
54.849998
 21
62.299999
  0
LINE
  8
0
  6
CONTINUOUS
 62
     7
 10
50.049999
 20
38
 11
51.049999
 21
38
  0
LINE
  8
0
  6
CONTINUOUS
 62
     7
 10
50.049999
 20
62
 11
51.049999
 21
62
  0
LINE
  8
0
  6
CONTINUOUS
 62
     7
 10
49.549999
 20
57.599998
 11
50.049999
 21
57.599998
  0
LINE
  8
0
  6
CONTINUOUS
 62
     7
 10
49.549999
 20
42.400002
 11
50.049999
 21
42.400002
  0
LINE
  8
0
  6
CONTINUOUS
 62
     7
 10
88.949997
 20
62.299999
 11
85.150002
 21
62.299999
  0
LINE
  8
0
  6
CONTINUOUS
 62
     7
 10
88.949997
 20
62.299999
 11
88.949997
 21
37.700001
  0
LINE
  8
0
  6
CONTINUOUS
 62
     7
 10
89.949997
 20
62
 11
88.949997
 21
62
  0
LINE
  8
0
  6
CONTINUOUS
 62
     7
 10
89.949997
 20
62
 11
89.949997
 21
38
  0
LINE
  8
0
  6
CONTINUOUS
 62
     7
 10
90.449997
 20
57.599998
 11
89.949997
 21
57.599998
  0
LINE
  8
0
  6
CONTINUOUS
 62
     7
 10
90.449997
 20
57.599998
 11
90.449997
 21
42.400002
  0
LINE
  8
0
  6
CONTINUOUS
 62
     7
 10
90.449997
 20
42.400002
 11
89.949997
 21
42.400002
  0
LINE
  8
0
  6
CONTINUOUS
 62
     7
 10
88.949997
 20
37.700001
 11
85.150002
 21
37.700001
  0
LINE
  8
0
  6
CONTINUOUS
 62
     7
 10
89.949997
 20
38
 11
88.949997
 21
38
  0
LINE
  8
0
  6
CENTER
 62
     7
 10
61
 20
54
 11
61
 21
46
  0
LINE
  8
0
  6
CENTER
 62
     7
 10
79
 20
54
 11
79
 21
46
  0
LINE
  8
0
  6
CONTINUOUS
 62
     7
 10
-10.777818
 20
6.1221824
 11
-9.2221823
 21
7.6778173
  0
LINE
  8
0
  6
CONTINUOUS
 62
     7
 10
-10.777817
 20
7.6778173
 11
-9.2221823
 21
6.1221824
  0
LINE
  8
0
  6
DASHED
 62
     7
 10
58.694595
 20
5.5
 11
63.267288
 21
5.5
  0
LINE
  8
0
  6
CENTER
 62
     7
 10
79
 20
9.8428335
 11
79
 21
4.3247027
  0
LINE
  8
0
  6
DASHED
 62
     7
 10
2
 20
9
 11
2
 21
5.5
  0
LINE
  8
0
  6
DASHED
 62
     7
 10
-1.7000008
 20
9
 11
-1.7000008
 21
5.5
  0
LINE
  8
0
  6
DASHED
 62
     7
 10
1.6999969
 20
9
 11
1.6999969
 21
5.5
  0
LINE
  8
0
  6
DASHED
 62
     7
 10
-2
 20
9
 11
-2
 21
5.5
  0
ARC
  8
0
  6
CONTINUOUS
 62
     7
 10
-7.1500001
 20
3.5999999
 40
0.79400003
 50
280.88958
 51
79.11042
  0
ARC
  8
0
  6
CONTINUOUS
 62
     7
 10
7.1500001
 20
3.5999999
 40
0.79400003
 50
100.88958
 51
259.11041
  0
CIRCLE
  8
0
  6
CONTINUOUS
 62
     7
 10
-10
 20
6.9000001
 40
1.5
  0
CIRCLE
  8
0
  6
CONTINUOUS
 62
     7
 10
-10
 20
6.9000001
 40
1.75
  0
CIRCLE
  8
0
  6
CONTINUOUS
 62
     7
 10
10
 20
6.9000001
 40
1.5
  0
CIRCLE
  8
0
  6
CONTINUOUS
 62
     7
 10
10
 20
6.9000001
 40
1.75
  0
ARC
  8
0
  6
CONTINUOUS
 62
     7
 10
-6.4000001
 20
4.5999999
 40
1.2
 50
90.000003
 51
180.00001
  0
ARC
  8
0
  6
CONTINUOUS
 62
     7
 10
6.4000001
 20
4.5999999
 40
1.2
 50
0
 51
90.000003
  0
ARC
  8
0
  6
CONTINUOUS
 62
     7
 10
51.25
 20
60
 40
1.8
 50
131.81032
 51
228.18968
  0
ARC
  8
0
  6
CONTINUOUS
 62
     7
 10
88.75
 20
6.9000001
 40
1.8
 50
311.81031
 51
48.189686
  0
CIRCLE
  8
0
  6
CONTINUOUS
 62
     7
 10
40
 20
50
 40
1.75
  0
CIRCLE
  8
0
  6
CONTINUOUS
 62
     7
 10
40
 20
50
 40
3
  0
ARC
  8
0
  6
CONTINUOUS
 62
     7
 10
51.25
 20
6.9000001
 40
1.8
 50
131.81032
 51
228.18968
  0
ARC
  8
0
  6
CONTINUOUS
 62
     7
 10
51.25
 20
40
 40
1.8
 50
131.81032
 51
228.18968
  0
ARC
  8
0
  6
CONTINUOUS
 62
     7
 10
88.75
 20
60
 40
1.8
 50
311.81031
 51
48.189686
  0
ARC
  8
0
  6
CONTINUOUS
 62
     7
 10
88.75
 20
40
 40
1.8
 50
311.81031
 51
48.189686
  0
CIRCLE
  8
0
  6
CONTINUOUS
 62
     7
 10
61
 20
50
 40
2
  0
CIRCLE
  8
0
  6
CONTINUOUS
 62
     7
 10
61
 20
50
 40
1.65
  0
CIRCLE
  8
0
  6
CONTINUOUS
 62
     7
 10
0
 20
7.4000001
 40
0.60000002
  0
TEXT
  8
0
  6
CONTINUOUS
 62
     7
 10
-1.6
 20
-16.8
 40
3.5999999
 41
0.87329055
  1
ＲＳＲ７ＷＮ
  0
ENDSEC
  0
EOF
