  0
SECTION
  2
HEADER
  0
ENDSEC
  0
SECTION
  2
TABLES
  0
TABLE
  2
LTYPE
 70
    22
  0
LTYPE
  2
CONTINUOUS
 70
    64
  3
Solid line
 72
    65
 73
     0
 40
0.000000
  0
LTYPE
  2
DASHED
 70
    64
  3
__ __ __ __ __ __ __ __ __ __ __ __ __ __ __
 72
    65
 73
     2
 40
3.500000
 49
2.000000
 49
-1.500000
  0
LTYPE
  2
CENTER
 70
    64
  3
____ _ ____ _ ____ _ ____ _ ____ _ ____ _ ____
 72
    65
 73
     4
 40
17.500000
 49
13.000000
 49
-1.500000
 49
1.500000
 49
-1.500000
  0
LTYPE
  2
PHANTOM
 70
    64
  3
_____ _ _ _____ _ _ _____ _ _ _____ _ _ ____  
 72
    65
 73
     6
 40
15.500000
 49
8.000000
 49
-1.500000
 49
1.500000
 49
-1.500000
 49
1.500000
 49
-1.500000
  0
LTYPE
  2
DOT
 70
    64
  3
. . . . . . . . . . . . . . . . . . . . . . . .
 72
    65
 73
     2
 40
0.25
 49
0.0
 49
-0.25
  0
ENDTAB
  0
TABLE
  2
LAYER
 70
     1
  0
LAYER
  2
0
 70
     0
 62
     7
  6
CONTINUOUS
  0
ENDTAB
  0
TABLE
  2
STYLE
 70
     1
  0
STYLE
  2
STANDARD
 70
     0
 40
0.000000
 41
1.000000
 50
0.000000
 71
     0
 42
0.200000
  3
txt
  0
ENDTAB
  0
TABLE
  2
VIEW
 70
     0
  0
ENDTAB
  0
ENDSEC
  0
SECTION
  2
BLOCKS
  0
ENDSEC
  0
SECTION
  2
ENTITIES
  0
LINE
  8
0
  6
CONTINUOUS
 62
     7
 10
-3.5
 20
0.44999847
 11
-3.5
 21
2.2966669
  0
LINE
  8
0
  6
CONTINUOUS
 62
     7
 10
-4
 20
8
 11
-8.0999985
 21
8
  0
LINE
  8
0
  6
CONTINUOUS
 62
     7
 10
-8.5
 20
7.5999985
 11
-8.5
 21
4.599999
  0
LINE
  8
0
  6
CONTINUOUS
 62
     7
 10
-3.0999985
 20
4.7000008
 11
3.1999969
 21
4.7000008
  0
LINE
  8
0
  6
CONTINUOUS
 62
     7
 10
-3.5
 20
3.9033318
 11
-3.5
 21
4.2999992
  0
LINE
  8
0
  6
CONTINUOUS
 62
     7
 10
-3.0999951
 20
4.6999955
 11
-3.4999976
 21
4.2999926
  0
LINE
  8
0
  6
CONTINUOUS
 62
     7
 10
-8.0999918
 20
7.9999895
 11
-8.4999924
 21
7.5999894
  0
LINE
  8
0
  6
CONTINUOUS
 62
     7
 10
-3.5
 20
0.44999853
 11
-3.0500016
 21
0
  0
LINE
  8
0
  6
CONTINUOUS
 62
     7
 10
3.5
 20
0.45000076
 11
3.5
 21
2.296669
  0
LINE
  8
0
  6
CONTINUOUS
 62
     7
 10
4.1999969
 20
1.5
 11
7.9000015
 21
1.5
  0
LINE
  8
0
  6
CONTINUOUS
 62
     7
 10
8.5
 20
7.5999985
 11
8.5
 21
4.599999
  0
LINE
  8
0
  6
CONTINUOUS
 62
     7
 10
3.5
 20
3.9033318
 11
3.5
 21
4.2999992
  0
LINE
  8
0
  6
CONTINUOUS
 62
     7
 10
8.3999987
 20
1.9999994
 11
7.8999977
 21
1.4999989
  0
LINE
  8
0
  6
CONTINUOUS
 62
     7
 10
8.1000051
 20
7.9999952
 11
8.5000076
 21
7.5999928
  0
LINE
  8
0
  6
CONTINUOUS
 62
     7
 10
3.5
 20
0.44999143
 11
3.0500031
 21
-5.5633841E-006
  0
LINE
  8
0
  6
CONTINUOUS
 62
     7
 10
35.285133
 20
8.0002308
 11
48.485134
 21
8.0002308
  0
LINE
  8
0
  6
CONTINUOUS
 62
     7
 10
21.885084
 20
4.7002316
 11
30.185137
 21
4.7002316
  0
LINE
  8
0
  6
CONTINUOUS
 62
     7
 10
35.285133
 20
8.0002308
 11
35.285133
 21
4.30023
  0
LINE
  8
0
  6
CONTINUOUS
 62
     7
 10
3.0500085
 20
0
 11
-3.0500016
 21
0
  0
LINE
  8
0
  6
CENTER
 62
     7
 10
6
 20
8.4075165
 11
6
 21
4.0060272
  0
LINE
  8
0
  6
CONTINUOUS
 62
     7
 10
-3.9999979
 20
7.9999919
 11
-3.6000011
 21
7.5999951
  0
LINE
  8
0
  6
CONTINUOUS
 62
     7
 10
-2.3000031
 20
7.9000015
 11
2.3000031
 21
7.9000015
  0
LINE
  8
0
  6
CONTINUOUS
 62
     7
 10
-2.5999947
 20
7.5999899
 11
-2.2999926
 21
7.899992
  0
LINE
  8
0
  6
CONTINUOUS
 62
     7
 10
4
 20
8
 11
8.0999985
 21
8
  0
LINE
  8
0
  6
CONTINUOUS
 62
     7
 10
4.0000029
 20
7.9999952
 11
3.6000025
 21
7.5999951
  0
LINE
  8
0
  6
CONTINUOUS
 62
     7
 10
3.6000059
 20
7.5999985
 11
2.5999985
 21
7.5999985
  0
LINE
  8
0
  6
CONTINUOUS
 62
     7
 10
2.6000016
 20
7.5999951
 11
2.3000076
 21
7.8999891
  0
LINE
  8
0
  6
CONTINUOUS
 62
     7
 10
31.685133
 20
7.5002308
 11
31.685133
 21
1.5002306
  0
LINE
  8
0
  6
CONTINUOUS
 62
     7
 10
30.185137
 20
5.1002293
 11
30.185137
 21
1.5002306
  0
LINE
  8
0
  6
CONTINUOUS
 62
     7
 10
35.285133
 20
7.5002308
 11
30.685137
 21
7.5002308
  0
LINE
  8
0
  6
CONTINUOUS
 62
     7
 10
30.185137
 20
1.5002306
 11
53.585133
 21
1.5002306
  0
LINE
  8
0
  6
CONTINUOUS
 62
     7
 10
33.385136
 20
5.0002308
 11
35.085133
 21
5.0002308
  0
LINE
  8
0
  6
CONTINUOUS
 62
     7
 10
33.385136
 20
5.0002308
 11
33.385136
 21
7.5002308
  0
LINE
  8
0
  6
CONTINUOUS
 62
     7
 10
35.285133
 20
5.0002308
 11
48.485134
 21
5.0002308
  0
LINE
  8
0
  6
CENTER
 62
     7
 10
37.885136
 20
8.4077473
 11
37.885136
 21
4.006258
  0
LINE
  8
0
  6
DASHED
 62
     7
 10
38.885136
 20
8.0002308
 11
38.885136
 21
5.5002308
  0
LINE
  8
0
  6
DASHED
 62
     7
 10
38.735134
 20
8.0002308
 11
38.735134
 21
4.7909794
  0
LINE
  8
0
  6
DASHED
 62
     7
 10
38.885136
 20
5.5002308
 11
36.885136
 21
5.5002308
  0
LINE
  8
0
  6
DASHED
 62
     7
 10
37.885132
 20
4.3002319
 11
38.73513
 21
4.7909794
  0
LINE
  8
0
  6
DASHED
 62
     7
 10
38.735134
 20
4.7909794
 11
37.035133
 21
4.7909794
  0
LINE
  8
0
  6
DASHED
 62
     7
 10
36.885136
 20
8.0002308
 11
36.885136
 21
5.5002308
  0
LINE
  8
0
  6
DASHED
 62
     7
 10
37.035133
 20
8.0002308
 11
37.035133
 21
4.7909794
  0
LINE
  8
0
  6
DASHED
 62
     7
 10
37.885132
 20
4.3002305
 11
37.035133
 21
4.790976
  0
LINE
  8
0
  6
CENTER
 62
     7
 10
45.885136
 20
8.4077473
 11
45.885136
 21
4.006258
  0
LINE
  8
0
  6
CONTINUOUS
 62
     7
 10
30.685137
 20
1.5002306
 11
30.685137
 21
5.2076664
  0
LINE
  8
0
  6
CONTINUOUS
 62
     7
 10
30.977449
 20
7.05023
 11
31.185133
 21
7.05023
  0
LINE
  8
0
  6
CONTINUOUS
 62
     7
 10
30.685137
 20
4.8502293
 11
31.185133
 21
4.8502293
  0
LINE
  8
0
  6
CONTINUOUS
 62
     7
 10
31.185133
 20
1.5002306
 11
31.185133
 21
7.5002308
  0
LINE
  8
0
  6
CONTINUOUS
 62
     7
 10
30.685137
 20
6.8839741
 11
30.685137
 21
7.5002308
  0
LINE
  8
0
  6
CONTINUOUS
 62
     7
 10
35.085133
 20
1.5002306
 11
35.085133
 21
5.0002308
  0
LINE
  8
0
  6
CONTINUOUS
 62
     7
 10
48.485134
 20
8.0002308
 11
48.485134
 21
4.30023
  0
LINE
  8
0
  6
CONTINUOUS
 62
     7
 10
52.085133
 20
7.5002308
 11
52.085133
 21
1.5002306
  0
LINE
  8
0
  6
CONTINUOUS
 62
     7
 10
53.585133
 20
5.1002293
 11
53.585133
 21
1.5002306
  0
LINE
  8
0
  6
CONTINUOUS
 62
     7
 10
53.085133
 20
7.5002308
 11
48.485134
 21
7.5002308
  0
LINE
  8
0
  6
CONTINUOUS
 62
     7
 10
50.385136
 20
5.0002308
 11
48.685135
 21
5.0002308
  0
LINE
  8
0
  6
CONTINUOUS
 62
     7
 10
50.385136
 20
5.0002308
 11
50.385136
 21
7.5002308
  0
LINE
  8
0
  6
CONTINUOUS
 62
     7
 10
53.085133
 20
1.5002306
 11
53.085133
 21
5.2076664
  0
LINE
  8
0
  6
CONTINUOUS
 62
     7
 10
52.792816
 20
7.05023
 11
52.585133
 21
7.05023
  0
LINE
  8
0
  6
CONTINUOUS
 62
     7
 10
52.792816
 20
5.05023
 11
52.585133
 21
5.05023
  0
LINE
  8
0
  6
CONTINUOUS
 62
     7
 10
53.085133
 20
4.8502293
 11
52.585133
 21
4.8502293
  0
LINE
  8
0
  6
CONTINUOUS
 62
     7
 10
52.585133
 20
1.5002306
 11
52.585133
 21
7.5002308
  0
LINE
  8
0
  6
CONTINUOUS
 62
     7
 10
53.085133
 20
6.8839741
 11
53.085133
 21
7.5002308
  0
LINE
  8
0
  6
CONTINUOUS
 62
     7
 10
48.685135
 20
1.5002306
 11
48.685135
 21
5.0002308
  0
LINE
  8
0
  6
CONTINUOUS
 62
     7
 10
8.4000015
 20
3.9300003
 11
8.4000015
 21
2
  0
LINE
  8
0
  6
CONTINUOUS
 62
     7
 10
48.48513
 20
7.8364639
 11
50.066982
 21
7.5002308
  0
LINE
  8
0
  6
CONTINUOUS
 62
     7
 10
35.28513
 20
7.8364692
 11
33.703281
 21
7.500236
  0
LINE
  8
0
  6
CONTINUOUS
 62
     7
 10
8.4000015
 20
3.9299963
 11
8.199995
 21
4.130003
  0
LINE
  8
0
  6
CONTINUOUS
 62
     7
 10
31.685133
 20
3.9302309
 11
52.085133
 21
3.9302309
  0
LINE
  8
0
  6
CONTINUOUS
 62
     7
 10
31.685133
 20
4.30023
 11
52.085133
 21
4.30023
  0
LINE
  8
0
  6
CONTINUOUS
 62
     7
 10
53.585133
 20
4.7002316
 11
61.885082
 21
4.7002316
  0
LINE
  8
0
  6
CONTINUOUS
 62
     7
 10
21.885084
 20
0.00023058534
 11
61.885082
 21
0.00023058534
  0
LINE
  8
0
  6
CONTINUOUS
 62
     7
 10
30.977449
 20
5.05023
 11
31.185133
 21
5.05023
  0
LINE
  8
0
  6
CONTINUOUS
 62
     7
 10
-7.9000015
 20
7.5
 11
7.8999939
 21
7.5
  0
LINE
  8
0
  6
CONTINUOUS
 62
     7
 10
-3.0999985
 20
5.0999985
 11
3.0999985
 21
5.0999985
  0
LINE
  8
0
  6
CONTINUOUS
 62
     7
 10
3.5
 20
4.4000015
 11
3.5
 21
3.8920674
  0
LINE
  8
0
  6
CONTINUOUS
 62
     7
 10
3.4999983
 20
4.3999982
 11
3.1999991
 21
4.6999974
  0
LINE
  8
0
  6
CONTINUOUS
 62
     7
 10
8.1999969
 20
7.2000008
 11
8.1999969
 21
1.7999992
  0
LINE
  8
0
  6
CONTINUOUS
 62
     7
 10
7.8999939
 20
1.5
 11
3.5
 21
1.5
  0
LINE
  8
0
  6
CONTINUOUS
 62
     7
 10
7.8999996
 20
1.4999986
 11
8.1999989
 21
1.7999978
  0
LINE
  8
0
  6
CONTINUOUS
 62
     7
 10
8.1999969
 20
7.2000031
 11
7.9000025
 21
7.4999971
  0
LINE
  8
0
  6
CONTINUOUS
 62
     7
 10
5.6499939
 20
7.5
 11
5.6499939
 21
6.0499992
  0
LINE
  8
0
  6
CONTINUOUS
 62
     7
 10
8.1999969
 20
4.7999992
 11
6.8999939
 21
4.7999992
  0
LINE
  8
0
  6
CONTINUOUS
 62
     7
 10
3.9000015
 20
4.2999992
 11
3.9000015
 21
1.5
  0
LINE
  8
0
  6
CONTINUOUS
 62
     7
 10
30.185137
 20
5.1002293
 11
30.685137
 21
5.1002293
  0
LINE
  8
0
  6
CONTINUOUS
 62
     7
 10
53.585136
 20
5.1002293
 11
53.085136
 21
5.1002293
  0
LINE
  8
0
  6
DASHED
 62
     7
 10
36.885136
 20
5.5002255
 11
37.035137
 21
5.2404156
  0
LINE
  8
0
  6
DASHED
 62
     7
 10
38.73513
 20
5.2404199
 11
38.885132
 21
5.5002303
  0
LINE
  8
0
  6
CONTINUOUS
 62
     7
 10
21.885084
 20
2.3081644
 11
30.185137
 21
2.3081644
  0
LINE
  8
0
  6
CONTINUOUS
 62
     7
 10
21.885084
 20
3.8922975
 11
30.185137
 21
3.8922975
  0
LINE
  8
0
  6
CONTINUOUS
 62
     7
 10
21.885084
 20
4.4002323
 11
30.185137
 21
4.4002323
  0
LINE
  8
0
  6
CONTINUOUS
 62
     7
 10
53.585133
 20
4.4002323
 11
61.885082
 21
4.4002323
  0
LINE
  8
0
  6
CONTINUOUS
 62
     7
 10
53.585133
 20
3.8922975
 11
61.885082
 21
3.8922975
  0
LINE
  8
0
  6
CONTINUOUS
 62
     7
 10
53.585133
 20
2.3081644
 11
61.885082
 21
2.3081644
  0
LINE
  8
0
  6
DASHED
 62
     7
 10
-2.0999985
 20
2.4000015
 11
-2.0999985
 21
4.7000008
  0
LINE
  8
0
  6
DASHED
 62
     7
 10
-2.0999985
 20
2.4000015
 11
2.0999985
 21
2.4000015
  0
LINE
  8
0
  6
DASHED
 62
     7
 10
-1.1999969
 20
0
 11
-1.1999969
 21
2.4000015
  0
LINE
  8
0
  6
DASHED
 62
     7
 10
1.1999969
 20
0
 11
1.1999969
 21
2.4000015
  0
LINE
  8
0
  6
DASHED
 62
     7
 10
2.0999985
 20
2.4000015
 11
2.0999985
 21
4.7000008
  0
LINE
  8
0
  6
DASHED
 62
     7
 10
24.785086
 20
2.4002321
 11
24.785086
 21
4.7002316
  0
LINE
  8
0
  6
DASHED
 62
     7
 10
24.785086
 20
2.4002321
 11
28.985083
 21
2.4002321
  0
LINE
  8
0
  6
DASHED
 62
     7
 10
28.985083
 20
2.4002321
 11
28.985083
 21
4.7002316
  0
LINE
  8
0
  6
DASHED
 62
     7
 10
25.685087
 20
0.090387143
 11
25.685087
 21
2.4002321
  0
LINE
  8
0
  6
DASHED
 62
     7
 10
28.085081
 20
0.00023058534
 11
28.085081
 21
2.4002321
  0
LINE
  8
0
  6
CENTER
 62
     7
 10
26.885084
 20
5.5975399
 11
26.885084
 21
-0.58899134
  0
LINE
  8
0
  6
CENTER
 62
     7
 10
41.885082
 20
2.1017702
 11
41.885082
 21
-0.58899134
  0
LINE
  8
0
  6
CENTER
 62
     7
 10
56.885082
 20
5.5975399
 11
56.885082
 21
-0.58899134
  0
LINE
  8
0
  6
CONTINUOUS
 62
     7
 10
-3.9000015
 20
4.2999992
 11
-3.9000015
 21
1.5
  0
LINE
  8
0
  6
CONTINUOUS
 62
     7
 10
-7.8999939
 20
1.5
 11
-3.5
 21
1.5
  0
LINE
  8
0
  6
CONTINUOUS
 62
     7
 10
-7.8999987
 20
1.4999945
 11
-8.1999979
 21
1.7999938
  0
LINE
  8
0
  6
CONTINUOUS
 62
     7
 10
-8.1999969
 20
7.2000008
 11
-8.1999969
 21
1.7999992
  0
LINE
  8
0
  6
CONTINUOUS
 62
     7
 10
-8.1999941
 20
7.2000041
 11
-7.9000006
 21
7.4999981
  0
LINE
  8
0
  6
CONTINUOUS
 62
     7
 10
-8.1999969
 20
4.7999992
 11
-6.8999939
 21
4.7999992
  0
LINE
  8
0
  6
CONTINUOUS
 62
     7
 10
-3.6000042
 20
7.5999985
 11
-2.5999985
 21
7.5999985
  0
LINE
  8
0
  6
CONTINUOUS
 62
     7
 10
-4.1999969
 20
1.5
 11
-7.9000015
 21
1.5
  0
LINE
  8
0
  6
CONTINUOUS
 62
     7
 10
-8.3999968
 20
1.999994
 11
-7.8999963
 21
1.4999936
  0
LINE
  8
0
  6
CONTINUOUS
 62
     7
 10
-8.4000015
 20
3.9300003
 11
-8.4000015
 21
2
  0
LINE
  8
0
  6
CONTINUOUS
 62
     7
 10
-8.3999996
 20
3.9299903
 11
-8.1999931
 21
4.1299968
  0
LINE
  8
0
  6
CONTINUOUS
 62
     7
 10
-7.8999987
 20
1.4999945
 11
-8.1999979
 21
1.7999938
  0
LINE
  8
0
  6
CENTER
 62
     7
 10
0
 20
-0.43615088
 11
0
 21
8.5978718
  0
LINE
  8
0
  6
CONTINUOUS
 62
     7
 10
-5.6499939
 20
7.5
 11
-5.6499939
 21
6.0499992
  0
LINE
  8
0
  6
CENTER
 62
     7
 10
-6
 20
8.4075165
 11
-6
 21
4.0060272
  0
LINE
  8
0
  6
CONTINUOUS
 62
     7
 10
61.885082
 20
4.7002316
 11
61.885082
 21
0.00023058534
  0
LINE
  8
0
  6
CONTINUOUS
 62
     7
 10
21.885084
 20
4.7002316
 11
21.885084
 21
0.00023058534
  0
LINE
  8
0
  6
CONTINUOUS
 62
     7
 10
21.885084
 20
19.700232
 11
30.185137
 21
19.700232
  0
LINE
  8
0
  6
CONTINUOUS
 62
     7
 10
53.585133
 20
19.700232
 11
61.885082
 21
19.700232
  0
LINE
  8
0
  6
CONTINUOUS
 62
     7
 10
21.885084
 20
26.700232
 11
30.185137
 21
26.700232
  0
LINE
  8
0
  6
CONTINUOUS
 62
     7
 10
53.585133
 20
26.700232
 11
61.885082
 21
26.700232
  0
LINE
  8
0
  6
CENTER
 62
     7
 10
18.633396
 20
23.200232
 11
64.181015
 21
23.200232
  0
LINE
  8
0
  6
CONTINUOUS
 62
     7
 10
21.885084
 20
26.700232
 11
21.885084
 21
19.700232
  0
LINE
  8
0
  6
CONTINUOUS
 62
     7
 10
30.185137
 20
27.100231
 11
30.185137
 21
19.300232
  0
LINE
  8
0
  6
CONTINUOUS
 62
     7
 10
30.685137
 20
31.40023
 11
30.685137
 21
30.868368
  0
LINE
  8
0
  6
CONTINUOUS
 62
     7
 10
31.185133
 20
31.40023
 11
31.185133
 21
15.000232
  0
LINE
  8
0
  6
CONTINUOUS
 62
     7
 10
31.685133
 20
31.40023
 11
31.685133
 21
15.000232
  0
LINE
  8
0
  6
CONTINUOUS
 62
     7
 10
33.385136
 20
31.700232
 11
33.385136
 21
14.700232
  0
LINE
  8
0
  6
CONTINUOUS
 62
     7
 10
35.285133
 20
31.700232
 11
35.285133
 21
25.800232
  0
LINE
  8
0
  6
CONTINUOUS
 62
     7
 10
48.485134
 20
31.700232
 11
48.485134
 21
25.800232
  0
LINE
  8
0
  6
CONTINUOUS
 62
     7
 10
50.385136
 20
31.700232
 11
50.385136
 21
14.700232
  0
LINE
  8
0
  6
CONTINUOUS
 62
     7
 10
52.085133
 20
31.40023
 11
52.085133
 21
15.000232
  0
LINE
  8
0
  6
CONTINUOUS
 62
     7
 10
61.885082
 20
26.700232
 11
61.885082
 21
19.700232
  0
LINE
  8
0
  6
CONTINUOUS
 62
     7
 10
33.385136
 20
31.700232
 11
50.385136
 21
31.700232
  0
LINE
  8
0
  6
CONTINUOUS
 62
     7
 10
33.385136
 20
14.700232
 11
50.385136
 21
14.700232
  0
LINE
  8
0
  6
CONTINUOUS
 62
     7
 10
30.685137
 20
31.40023
 11
33.385136
 21
31.40023
  0
LINE
  8
0
  6
CONTINUOUS
 62
     7
 10
30.685137
 20
15.000232
 11
33.385136
 21
15.000232
  0
LINE
  8
0
  6
CONTINUOUS
 62
     7
 10
35.285133
 20
26.800232
 11
48.485134
 21
26.800232
  0
LINE
  8
0
  6
CONTINUOUS
 62
     7
 10
35.285133
 20
19.600231
 11
48.485134
 21
19.600231
  0
LINE
  8
0
  6
CONTINUOUS
 62
     7
 10
33.385136
 20
25.800232
 11
50.385136
 21
25.800232
  0
LINE
  8
0
  6
CONTINUOUS
 62
     7
 10
33.385136
 20
20.600231
 11
50.385136
 21
20.600231
  0
LINE
  8
0
  6
CONTINUOUS
 62
     7
 10
35.285133
 20
20.600231
 11
35.285133
 21
14.700232
  0
LINE
  8
0
  6
CONTINUOUS
 62
     7
 10
48.485134
 20
20.600231
 11
48.485134
 21
14.700232
  0
LINE
  8
0
  6
CONTINUOUS
 62
     7
 10
-7.394969
 20
5.5550246
 11
-6.4050193
 21
6.5449743
  0
LINE
  8
0
  6
CONTINUOUS
 62
     7
 10
-7.3949685
 20
6.5449739
 11
-6.4050193
 21
5.5550246
  0
LINE
  8
0
  6
CONTINUOUS
 62
     7
 10
30.185137
 20
27.100231
 11
30.685137
 21
27.100231
  0
LINE
  8
0
  6
CONTINUOUS
 62
     7
 10
30.185137
 20
19.300232
 11
30.685137
 21
19.300232
  0
LINE
  8
0
  6
CONTINUOUS
 62
     7
 10
30.977449
 20
17.300232
 11
31.185133
 21
17.300232
  0
LINE
  8
0
  6
CONTINUOUS
 62
     7
 10
30.977449
 20
15.300231
 11
31.185133
 21
15.300231
  0
LINE
  8
0
  6
CONTINUOUS
 62
     7
 10
30.977449
 20
29.100231
 11
31.185133
 21
29.100231
  0
LINE
  8
0
  6
CONTINUOUS
 62
     7
 10
30.977449
 20
31.100231
 11
31.185133
 21
31.100231
  0
LINE
  8
0
  6
CONTINUOUS
 62
     7
 10
30.685137
 20
29.332094
 11
30.685137
 21
17.068369
  0
LINE
  8
0
  6
CONTINUOUS
 62
     7
 10
30.685137
 20
15.532752
 11
30.685137
 21
15.000232
  0
LINE
  8
0
  6
CONTINUOUS
 62
     7
 10
52.792816
 20
31.100231
 11
52.585133
 21
31.100231
  0
LINE
  8
0
  6
CONTINUOUS
 62
     7
 10
52.792816
 20
29.100231
 11
52.585133
 21
29.100231
  0
LINE
  8
0
  6
CONTINUOUS
 62
     7
 10
52.792816
 20
15.300231
 11
52.585133
 21
15.300231
  0
LINE
  8
0
  6
CONTINUOUS
 62
     7
 10
53.085129
 20
15.000232
 11
50.385132
 21
15.000232
  0
LINE
  8
0
  6
CONTINUOUS
 62
     7
 10
53.085129
 20
31.40023
 11
50.385132
 21
31.40023
  0
LINE
  8
0
  6
CONTINUOUS
 62
     7
 10
52.792816
 20
17.300232
 11
52.585133
 21
17.300232
  0
LINE
  8
0
  6
CONTINUOUS
 62
     7
 10
53.585129
 20
27.100231
 11
53.085129
 21
27.100231
  0
LINE
  8
0
  6
CONTINUOUS
 62
     7
 10
53.585129
 20
19.300232
 11
53.085129
 21
19.300232
  0
LINE
  8
0
  6
CONTINUOUS
 62
     7
 10
52.585133
 20
31.40023
 11
52.585133
 21
15.000232
  0
LINE
  8
0
  6
CONTINUOUS
 62
     7
 10
53.085129
 20
31.40023
 11
53.085129
 21
30.868368
  0
LINE
  8
0
  6
CONTINUOUS
 62
     7
 10
53.585129
 20
27.100231
 11
53.585129
 21
19.300232
  0
LINE
  8
0
  6
CONTINUOUS
 62
     7
 10
53.085129
 20
15.532752
 11
53.085129
 21
15.000232
  0
LINE
  8
0
  6
CONTINUOUS
 62
     7
 10
53.085129
 20
29.332094
 11
53.085129
 21
17.068369
  0
LINE
  8
0
  6
CENTER
 62
     7
 10
26.885132
 20
25.435232
 11
26.885132
 21
20.965231
  0
LINE
  8
0
  6
CENTER
 62
     7
 10
41.885132
 20
25.435232
 11
41.885132
 21
20.965231
  0
LINE
  8
0
  6
CENTER
 62
     7
 10
56.885132
 20
25.435232
 11
56.885132
 21
20.965231
  0
LINE
  8
0
  6
CENTER
 62
     7
 10
39.020134
 20
17.200232
 11
36.750134
 21
17.200232
  0
LINE
  8
0
  6
CENTER
 62
     7
 10
37.885136
 20
18.335232
 11
37.885136
 21
16.065231
  0
LINE
  8
0
  6
CENTER
 62
     7
 10
47.020134
 20
17.200232
 11
44.750134
 21
17.200232
  0
LINE
  8
0
  6
CENTER
 62
     7
 10
45.885136
 20
18.335232
 11
45.885136
 21
16.065231
  0
LINE
  8
0
  6
CENTER
 62
     7
 10
47.020134
 20
29.200232
 11
44.750134
 21
29.200232
  0
LINE
  8
0
  6
CENTER
 62
     7
 10
45.885136
 20
30.335232
 11
45.885136
 21
28.065231
  0
LINE
  8
0
  6
CENTER
 62
     7
 10
39.020134
 20
29.200232
 11
36.750134
 21
29.200232
  0
LINE
  8
0
  6
CENTER
 62
     7
 10
37.885136
 20
30.335232
 11
37.885136
 21
28.065231
  0
ARC
  8
0
  6
CONTINUOUS
 62
     7
 10
-3.7603073
 20
2.9896927
 40
0.94999999
 50
6.6678462
 51
74.097109
  0
ARC
  8
0
  6
CONTINUOUS
 62
     7
 10
-3.7603073
 20
3.2103081
 40
0.94999999
 50
285.90289
 51
353.33215
  0
ARC
  8
0
  6
CONTINUOUS
 62
     7
 10
33.585133
 20
6.05023
 40
3
 50
164.97389
 51
195.02612
  0
ARC
  8
0
  6
CONTINUOUS
 62
     7
 10
30.977449
 20
6.7502308
 40
0.30000001
 50
90.000003
 51
164.97389
  0
ARC
  8
0
  6
CONTINUOUS
 62
     7
 10
30.977449
 20
5.3502293
 40
0.30000001
 50
195.02611
 51
270
  0
ARC
  8
0
  6
CONTINUOUS
 62
     7
 10
50.185135
 20
6.05023
 40
3
 50
344.97389
 51
15.026114
  0
ARC
  8
0
  6
CONTINUOUS
 62
     7
 10
52.792816
 20
6.7502308
 40
0.30000001
 50
15.026114
 51
90.000003
  0
ARC
  8
0
  6
CONTINUOUS
 62
     7
 10
52.792816
 20
5.3502293
 40
0.30000001
 50
270
 51
344.97389
  0
ARC
  8
0
  6
CONTINUOUS
 62
     7
 10
-8.1999969
 20
4.599999
 40
0.30000001
 50
180.00001
 51
270
  0
ARC
  8
0
  6
CONTINUOUS
 62
     7
 10
8.1999969
 20
4.599999
 40
0.30000001
 50
270
 51
0
  0
ARC
  8
0
  6
CONTINUOUS
 62
     7
 10
3.0999985
 20
4.2999992
 40
0.80000001
 50
0
 51
90.000003
  0
ARC
  8
0
  6
CONTINUOUS
 62
     7
 10
6.8999939
 20
6.0499992
 40
1.25
 50
180.00001
 51
270
  0
ARC
  8
0
  6
CONTINUOUS
 62
     7
 10
3.703743
 20
3.0462608
 40
0.87
 50
103.54372
 51
183.464
  0
CIRCLE
  8
0
  6
CONTINUOUS
 62
     7
 10
6.8999939
 20
6.0499992
 40
1
  0
ARC
  8
0
  6
CONTINUOUS
 62
     7
 10
-3.0999985
 20
4.2999992
 40
0.80000001
 50
89.999996
 51
180.00001
  0
CIRCLE
  8
0
  6
CONTINUOUS
 62
     7
 10
-6.8999939
 20
6.0499992
 40
1
  0
CIRCLE
  8
0
  6
CONTINUOUS
 62
     7
 10
0
 20
6.4000006
 40
0.75
  0
ARC
  8
0
  6
CONTINUOUS
 62
     7
 10
-6.8999939
 20
6.0499992
 40
1.25
 50
270
 51
359.99999
  0
ARC
  8
0
  6
CONTINUOUS
 62
     7
 10
33.585133
 20
16.300232
 40
3
 50
164.97389
 51
195.02612
  0
ARC
  8
0
  6
CONTINUOUS
 62
     7
 10
30.977449
 20
17.000233
 40
0.30000001
 50
90.000003
 51
164.97389
  0
ARC
  8
0
  6
CONTINUOUS
 62
     7
 10
30.977449
 20
15.60023
 40
0.30000001
 50
195.02611
 51
270
  0
ARC
  8
0
  6
CONTINUOUS
 62
     7
 10
33.585133
 20
30.100231
 40
3
 50
164.97389
 51
195.02612
  0
ARC
  8
0
  6
CONTINUOUS
 62
     7
 10
30.977449
 20
30.800232
 40
0.30000001
 50
90.000003
 51
164.97389
  0
ARC
  8
0
  6
CONTINUOUS
 62
     7
 10
30.977449
 20
29.40023
 40
0.30000001
 50
195.02611
 51
270
  0
ARC
  8
0
  6
CONTINUOUS
 62
     7
 10
50.185135
 20
30.100231
 40
3
 50
344.97388
 51
15.026111
  0
ARC
  8
0
  6
CONTINUOUS
 62
     7
 10
52.792816
 20
29.40023
 40
0.30000001
 50
270
 51
344.97389
  0
ARC
  8
0
  6
CONTINUOUS
 62
     7
 10
52.792816
 20
30.800232
 40
0.30000001
 50
15.026111
 51
89.999996
  0
ARC
  8
0
  6
CONTINUOUS
 62
     7
 10
50.185135
 20
16.300232
 40
3
 50
344.97388
 51
15.026111
  0
ARC
  8
0
  6
CONTINUOUS
 62
     7
 10
52.792816
 20
17.000233
 40
0.30000001
 50
15.026111
 51
89.999996
  0
ARC
  8
0
  6
CONTINUOUS
 62
     7
 10
52.792816
 20
15.60023
 40
0.30000001
 50
270
 51
344.97389
  0
CIRCLE
  8
0
  6
CONTINUOUS
 62
     7
 10
26.885132
 20
23.200232
 40
2.0999999
  0
CIRCLE
  8
0
  6
CONTINUOUS
 62
     7
 10
26.885132
 20
23.200232
 40
1.2
  0
CIRCLE
  8
0
  6
CONTINUOUS
 62
     7
 10
37.885136
 20
17.200232
 40
1
  0
CIRCLE
  8
0
  6
CONTINUOUS
 62
     7
 10
37.885136
 20
17.200232
 40
0.85000002
  0
ARC
  8
0
  6
CONTINUOUS
 62
     7
 10
3.7603073
 20
3.2103081
 40
0.94999999
 50
193.18021
 51
254.09711
  0
TEXT
  8
0
  6
CONTINUOUS
 62
     7
 10
-2.3897994
 20
-19.578244
 40
3.5999999
 41
1.0476191
  1
RSR7Z
  0
TEXT
  8
0
  6
CONTINUOUS
 62
     7
 10
-2.3897994
 20
-24.578244
 40
3.5999999
 41
1.0229886
  1
  C = 880N
  0
TEXT
  8
0
  6
CONTINUOUS
 62
     7
 10
-2.3897994
 20
-29.578244
 40
3.5999999
 41
1.0229886
  1
  C0=1370N
  0
ENDSEC
  0
EOF
