  0
SECTION
  2
HEADER
  0
ENDSEC
  0
SECTION
  2
TABLES
  0
TABLE
  2
LTYPE
 70
    22
  0
LTYPE
  2
CONTINUOUS
 70
    64
  3
Solid line
 72
    65
 73
     0
 40
0.000000
  0
LTYPE
  2
DASHED
 70
    64
  3
__ __ __ __ __ __ __ __ __ __ __ __ __ __ __
 72
    65
 73
     2
 40
3.500000
 49
2.000000
 49
-1.500000
  0
LTYPE
  2
CENTER
 70
    64
  3
____ _ ____ _ ____ _ ____ _ ____ _ ____ _ ____
 72
    65
 73
     4
 40
17.500000
 49
13.000000
 49
-1.500000
 49
1.500000
 49
-1.500000
  0
LTYPE
  2
PHANTOM
 70
    64
  3
_____ _ _ _____ _ _ _____ _ _ _____ _ _ ____  
 72
    65
 73
     6
 40
15.500000
 49
8.000000
 49
-1.500000
 49
1.500000
 49
-1.500000
 49
1.500000
 49
-1.500000
  0
LTYPE
  2
DOT
 70
    64
  3
. . . . . . . . . . . . . . . . . . . . . . . .
 72
    65
 73
     2
 40
0.25
 49
0.0
 49
-0.25
  0
ENDTAB
  0
TABLE
  2
LAYER
 70
     1
  0
LAYER
  2
0
 70
     0
 62
     7
  6
CONTINUOUS
  0
ENDTAB
  0
TABLE
  2
STYLE
 70
     1
  0
STYLE
  2
STANDARD
 70
     0
 40
0.000000
 41
1.000000
 50
0.000000
 71
     0
 42
0.200000
  3
txt
  4
BIGFONT
  0
ENDTAB
  0
TABLE
  2
VIEW
 70
     0
  0
ENDTAB
  0
ENDSEC
  0
SECTION
  2
BLOCKS
  0
ENDSEC
  0
SECTION
  2
ENTITIES
  0
LINE
  8
0
  6
CONTINUOUS
 62
     7
 10
47.599991
 20
10
 11
77.400009
 21
10
  0
LINE
  8
0
  6
CONTINUOUS
 62
     7
 10
105
 20
5.5
 11
105
 21
0
  0
LINE
  8
0
  6
CONTINUOUS
 62
     7
 10
30
 20
5.5
 11
30
 21
0
  0
LINE
  8
0
  6
CONTINUOUS
 62
     7
 10
30
 20
5.5
 11
42.100037
 21
5.5
  0
LINE
  8
0
  6
CONTINUOUS
 62
     7
 10
30
 20
4.8476715
 11
42.100037
 21
4.8476715
  0
LINE
  8
0
  6
CONTINUOUS
 62
     7
 10
30
 20
2.9220581
 11
42.100037
 21
2.9220581
  0
LINE
  8
0
  6
CONTINUOUS
 62
     7
 10
30
 20
0
 11
105
 21
0
  0
LINE
  8
0
  6
CONTINUOUS
 62
     7
 10
82.900009
 20
5.5
 11
105
 21
5.5
  0
LINE
  8
0
  6
CONTINUOUS
 62
     7
 10
82.900009
 20
4.8476715
 11
105
 21
4.8476715
  0
LINE
  8
0
  6
CONTINUOUS
 62
     7
 10
82.900009
 20
2.9220581
 11
105
 21
2.9220581
  0
LINE
  8
0
  6
CONTINUOUS
 62
     7
 10
47.599991
 20
10
 11
47.599991
 21
2.1999969
  0
LINE
  8
0
  6
CONTINUOUS
 62
     7
 10
43.600037
 20
9.2999878
 11
43.600037
 21
2.1999969
  0
LINE
  8
0
  6
CONTINUOUS
 62
     7
 10
42.600037
 20
9.2999878
 11
42.600037
 21
2.1999969
  0
LINE
  8
0
  6
CONTINUOUS
 62
     7
 10
42.600037
 20
9.2999878
 11
47.599991
 21
9.2999878
  0
LINE
  8
0
  6
CONTINUOUS
 62
     7
 10
42.100037
 20
2.1999969
 11
82.900009
 21
2.1999969
  0
LINE
  8
0
  6
CENTER
 62
     7
 10
37.5
 20
6.3190765
 11
37.5
 21
-0.67401123
  0
LINE
  8
0
  6
DASHED
 62
     7
 10
34.5
 20
5.5
 11
34.5
 21
2.1999969
  0
LINE
  8
0
  6
DASHED
 62
     7
 10
40.5
 20
5.5
 11
40.5
 21
2.1999969
  0
LINE
  8
0
  6
DASHED
 62
     7
 10
34.5
 20
2.1999969
 11
40.5
 21
2.1999969
  0
LINE
  8
0
  6
DASHED
 62
     7
 10
35.75
 20
2.1999969
 11
35.75
 21
0
  0
LINE
  8
0
  6
DASHED
 62
     7
 10
39.25
 20
2.1999969
 11
39.25
 21
0
  0
LINE
  8
0
  6
CENTER
 62
     7
 10
54.5
 20
4.7164917
 11
54.5
 21
10.252014
  0
LINE
  8
0
  6
DASHED
 62
     7
 10
56
 20
7
 11
56
 21
9.8999939
  0
LINE
  8
0
  6
DASHED
 62
     7
 10
53
 20
7
 11
53
 21
9.8999939
  0
LINE
  8
0
  6
DASHED
 62
     7
 10
55.799988
 20
5.7999878
 11
55.799988
 21
9.6999969
  0
LINE
  8
0
  6
DASHED
 62
     7
 10
53.199997
 20
5.7999878
 11
53.199997
 21
9.6999969
  0
LINE
  8
0
  6
DASHED
 62
     7
 10
53
 20
7
 11
56
 21
7
  0
LINE
  8
0
  6
DASHED
 62
     7
 10
53.199997
 20
5.7999878
 11
55.799988
 21
5.7999878
  0
LINE
  8
0
  6
DASHED
 62
     7
 10
54.500107
 20
5.0492759
 11
55.800106
 21
5.7998328
  0
LINE
  8
0
  6
DASHED
 62
     7
 10
55.800098
 20
6.6534758
 11
56.000095
 21
6.9998808
  0
LINE
  8
0
  6
DASHED
 62
     7
 10
53.200066
 20
6.653502
 11
53.000053
 21
6.9999337
  0
LINE
  8
0
  6
DASHED
 62
     7
 10
54.500111
 20
5.0493264
 11
53.200066
 21
5.7999067
  0
LINE
  8
0
  6
CENTER
 62
     7
 10
70.5
 20
4.7164917
 11
70.5
 21
10.252014
  0
LINE
  8
0
  6
CONTINUOUS
 62
     7
 10
77.400009
 20
2.1999969
 11
77.400009
 21
10
  0
LINE
  8
0
  6
CONTINUOUS
 62
     7
 10
81.400009
 20
2.1999969
 11
81.400009
 21
9.2999878
  0
LINE
  8
0
  6
CONTINUOUS
 62
     7
 10
82.900009
 20
2.1999969
 11
82.900009
 21
5.6389418
  0
LINE
  8
0
  6
CONTINUOUS
 62
     7
 10
82.400009
 20
2.1999969
 11
82.400009
 21
9.2999878
  0
LINE
  8
0
  6
CONTINUOUS
 62
     7
 10
77.400009
 20
9.2999878
 11
82.400009
 21
9.2999878
  0
LINE
  8
0
  6
CONTINUOUS
 62
     7
 10
42.100037
 20
5.6389313
 11
42.100037
 21
2.1999969
  0
LINE
  8
0
  6
CONTINUOUS
 62
     7
 10
4.2010465
 20
0
 11
-4.1999645
 21
0
  0
LINE
  8
0
  6
CENTER
 62
     7
 10
0
 20
10.48671
 11
0
 21
-0.67402649
  0
LINE
  8
0
  6
CONTINUOUS
 62
     7
 10
-4.0999146
 20
5.5
 11
4.1000977
 21
5.5
  0
LINE
  8
0
  6
CONTINUOUS
 62
     7
 10
-4.5
 20
5.0999908
 11
-4.5
 21
4.7886992
  0
LINE
  8
0
  6
CONTINUOUS
 62
     7
 10
-4.4993892
 20
0.29942477
 11
-4.1993952
 21
-0.00056922721
  0
LINE
  8
0
  6
CONTINUOUS
 62
     7
 10
4.2010465
 20
-5.9314345E-008
 11
4.5
 21
0.29895318
  0
LINE
  8
0
  6
CONTINUOUS
 62
     7
 10
-9.4997559
 20
9.9998932
 11
-5.5
 21
9.9998932
  0
LINE
  8
0
  6
CONTINUOUS
 62
     7
 10
10
 20
9.4998932
 11
10
 21
2.6999969
  0
LINE
  8
0
  6
CONTINUOUS
 62
     7
 10
-9.9997559
 20
9.4998932
 11
-9.9997559
 21
2.6998186
  0
LINE
  8
0
  6
CONTINUOUS
 62
     7
 10
9.5006104
 20
9.9994469
 11
10.000687
 21
9.4993715
  0
LINE
  8
0
  6
CONTINUOUS
 62
     7
 10
-9.4993505
 20
9.9994192
 11
-9.9993505
 21
9.4994183
  0
LINE
  8
0
  6
CONTINUOUS
 62
     7
 10
-9.4996338
 20
2.1999969
 11
-4.6998291
 21
2.1999969
  0
LINE
  8
0
  6
CONTINUOUS
 62
     7
 10
5.0006471
 20
9.4994154
 11
5.500648
 21
9.9994154
  0
LINE
  8
0
  6
CONTINUOUS
 62
     7
 10
-4.9994011
 20
9.4994574
 11
-5.4993477
 21
9.999403
  0
LINE
  8
0
  6
CONTINUOUS
 62
     7
 10
5.5
 20
9.9998932
 11
9.5
 21
9.9998932
  0
LINE
  8
0
  6
CENTER
 62
     7
 10
7.5
 20
10.251953
 11
7.5
 21
4.7164917
  0
LINE
  8
0
  6
CONTINUOUS
 62
     7
 10
-4.5
 20
2.8112907
 11
-4.5
 21
0.29998779
  0
LINE
  8
0
  6
CONTINUOUS
 62
     7
 10
-4.0993109
 20
5.4993696
 11
-4.4993019
 21
5.0993772
  0
LINE
  8
0
  6
DASHED
 62
     7
 10
-3
 20
2.1999969
 11
3
 21
2.1999969
  0
LINE
  8
0
  6
DASHED
 62
     7
 10
-1.75
 20
2.1999969
 11
-1.75
 21
0
  0
LINE
  8
0
  6
DASHED
 62
     7
 10
1.75
 20
2.1999969
 11
1.75
 21
0
  0
LINE
  8
0
  6
CONTINUOUS
 62
     7
 10
4.5
 20
4.7886992
 11
4.5
 21
5.0999908
  0
LINE
  8
0
  6
CONTINUOUS
 62
     7
 10
4.5
 20
0.29895312
 11
4.5
 21
2.8112907
  0
LINE
  8
0
  6
CONTINUOUS
 62
     7
 10
4.5006347
 20
5.0994081
 11
4.1006436
 21
5.4994006
  0
LINE
  8
0
  6
CONTINUOUS
 62
     7
 10
-5
 20
9.4998932
 11
5
 21
9.4998932
  0
LINE
  8
0
  6
CONTINUOUS
 62
     7
 10
4.699646
 20
2.1999969
 11
9.5
 21
2.1999969
  0
LINE
  8
0
  6
CONTINUOUS
 62
     7
 10
9.5003653
 20
2.1996758
 11
10.000365
 21
2.6996763
  0
LINE
  8
0
  6
CENTER
 62
     7
 10
-7.4997559
 20
4.7164917
 11
-7.4997559
 21
10.251953
  0
LINE
  8
0
  6
CONTINUOUS
 62
     7
 10
-8.4997559
 20
9.2999268
 11
8.4988804
 21
9.2999268
  0
LINE
  8
0
  6
CONTINUOUS
 62
     7
 10
-9.4997559
 20
8.2999878
 11
-9.4997559
 21
2.6999969
  0
LINE
  8
0
  6
CONTINUOUS
 62
     7
 10
-9.4997559
 20
8.2990532
 11
-8.4993782
 21
9.2994299
  0
LINE
  8
0
  6
CONTINUOUS
 62
     7
 10
-9.4993496
 20
2.6994147
 11
-8.9993591
 21
2.1994247
  0
LINE
  8
0
  6
CONTINUOUS
 62
     7
 10
-5.2998657
 20
5.0999994
 11
-5.2998657
 21
2.1999969
  0
LINE
  8
0
  6
CONTINUOUS
 62
     7
 10
-4.699348
 20
2.1994073
 11
-4.4993515
 21
2.3994029
  0
LINE
  8
0
  6
CONTINUOUS
 62
     7
 10
-9.9997559
 20
2.6998193
 11
-9.4993534
 21
2.1994169
  0
LINE
  8
0
  6
CONTINUOUS
 62
     7
 10
9.5
 20
2.6999969
 11
9.5
 21
8.2988081
  0
LINE
  8
0
  6
CONTINUOUS
 62
     7
 10
8.9999437
 20
2.1996472
 11
9.4999342
 21
2.6996367
  0
LINE
  8
0
  6
CONTINUOUS
 62
     7
 10
5.3000488
 20
2.1999969
 11
5.3000488
 21
5.0999994
  0
LINE
  8
0
  6
CONTINUOUS
 62
     7
 10
4.5000882
 20
2.3994472
 11
4.7001276
 21
2.1994088
  0
LINE
  8
0
  6
DASHED
 62
     7
 10
-3
 20
5.5
 11
-3
 21
2.1999969
  0
LINE
  8
0
  6
DASHED
 62
     7
 10
3
 20
5.5
 11
3
 21
2.1999969
  0
LINE
  8
0
  6
CONTINUOUS
 62
     7
 10
9.5
 20
8.2988091
 11
8.4993782
 21
9.2994299
  0
LINE
  8
0
  6
CONTINUOUS
 62
     7
 10
-4.0998659
 20
6.3000002
 11
4.100049
 21
6.3000002
  0
LINE
  8
0
  6
CONTINUOUS
 62
     7
 10
30
 20
54.49939
 11
42.100037
 21
54.49939
  0
LINE
  8
0
  6
CONTINUOUS
 62
     7
 10
30
 20
45.499359
 11
42.100037
 21
45.499359
  0
LINE
  8
0
  6
CENTER
 62
     7
 10
31
 20
50
 11
108
 21
50
  0
LINE
  8
0
  6
CONTINUOUS
 62
     7
 10
30
 20
54.49939
 11
30
 21
45.499359
  0
LINE
  8
0
  6
CONTINUOUS
 62
     7
 10
105
 20
54.49939
 11
105
 21
45.499359
  0
LINE
  8
0
  6
CONTINUOUS
 62
     7
 10
47.599991
 20
59.999344
 11
47.599991
 21
39.999313
  0
LINE
  8
0
  6
CONTINUOUS
 62
     7
 10
77.400009
 20
59.999344
 11
77.400009
 21
39.999313
  0
LINE
  8
0
  6
CONTINUOUS
 62
     7
 10
81.40004
 20
59.699707
 11
81.40004
 21
40.299927
  0
LINE
  8
0
  6
CONTINUOUS
 62
     7
 10
43.600037
 20
59.699707
 11
43.600037
 21
40.299927
  0
LINE
  8
0
  6
CONTINUOUS
 62
     7
 10
42.600037
 20
59.499756
 11
42.600037
 21
40.5
  0
LINE
  8
0
  6
CONTINUOUS
 62
     7
 10
82.400009
 20
59.499756
 11
82.400009
 21
40.5
  0
LINE
  8
0
  6
CONTINUOUS
 62
     7
 10
47.599991
 20
59.999344
 11
77.400009
 21
59.999344
  0
LINE
  8
0
  6
CONTINUOUS
 62
     7
 10
47.599991
 20
55.499344
 11
77.400009
 21
55.499344
  0
LINE
  8
0
  6
CONTINUOUS
 62
     7
 10
47.599991
 20
44.499344
 11
77.400009
 21
44.499344
  0
LINE
  8
0
  6
CONTINUOUS
 62
     7
 10
47.599991
 20
39.999313
 11
77.400009
 21
39.999313
  0
LINE
  8
0
  6
CONTINUOUS
 62
     7
 10
82.900009
 20
54.49939
 11
105
 21
54.49939
  0
LINE
  8
0
  6
CONTINUOUS
 62
     7
 10
82.900009
 20
45.499359
 11
105
 21
45.499359
  0
LINE
  8
0
  6
CONTINUOUS
 62
     7
 10
43.600037
 20
40.299927
 11
47.599991
 21
40.299927
  0
LINE
  8
0
  6
CONTINUOUS
 62
     7
 10
43.600037
 20
59.699707
 11
47.599991
 21
59.699707
  0
LINE
  8
0
  6
CONTINUOUS
 62
     7
 10
77.400009
 20
59.699707
 11
81.40004
 21
59.699707
  0
LINE
  8
0
  6
CONTINUOUS
 62
     7
 10
77.400009
 20
40.299927
 11
81.40004
 21
40.299927
  0
LINE
  8
0
  6
CONTINUOUS
 62
     7
 10
42.600037
 20
40.5
 11
43.600037
 21
40.5
  0
LINE
  8
0
  6
CONTINUOUS
 62
     7
 10
42.600037
 20
59.499756
 11
43.600037
 21
59.499756
  0
LINE
  8
0
  6
CONTINUOUS
 62
     7
 10
81.40004
 20
59.499756
 11
82.400009
 21
59.499756
  0
LINE
  8
0
  6
CONTINUOUS
 62
     7
 10
81.40004
 20
40.5
 11
82.400009
 21
40.5
  0
LINE
  8
0
  6
CONTINUOUS
 62
     7
 10
82.400009
 20
44.699951
 11
82.900009
 21
44.699951
  0
LINE
  8
0
  6
CONTINUOUS
 62
     7
 10
82.400009
 20
55.299866
 11
82.900009
 21
55.299866
  0
LINE
  8
0
  6
CONTINUOUS
 62
     7
 10
42.100037
 20
55.299866
 11
42.100037
 21
44.699951
  0
LINE
  8
0
  6
CONTINUOUS
 62
     7
 10
82.900009
 20
55.299866
 11
82.900009
 21
44.699951
  0
LINE
  8
0
  6
CONTINUOUS
 62
     7
 10
42.100037
 20
44.699951
 11
42.600037
 21
44.699951
  0
LINE
  8
0
  6
CONTINUOUS
 62
     7
 10
42.100037
 20
55.299866
 11
42.600037
 21
55.299866
  0
LINE
  8
0
  6
CENTER
 62
     7
 10
57
 20
42.5
 11
52
 21
42.5
  0
LINE
  8
0
  6
CENTER
 62
     7
 10
54.5
 20
45
 11
54.5
 21
40
  0
LINE
  8
0
  6
CENTER
 62
     7
 10
73
 20
42.5
 11
68
 21
42.5
  0
LINE
  8
0
  6
CENTER
 62
     7
 10
70.5
 20
45
 11
70.5
 21
40
  0
LINE
  8
0
  6
CENTER
 62
     7
 10
70.5
 20
55
 11
70.5
 21
60
  0
LINE
  8
0
  6
CENTER
 62
     7
 10
57
 20
57.5
 11
52
 21
57.5
  0
LINE
  8
0
  6
CENTER
 62
     7
 10
54.5
 20
55
 11
54.5
 21
60
  0
LINE
  8
0
  6
CENTER
 62
     7
 10
73
 20
57.5
 11
68
 21
57.5
  0
LINE
  8
0
  6
CENTER
 62
     7
 10
37.5
 20
53.5
 11
37.5
 21
46.5
  0
LINE
  8
0
  6
CENTER
 62
     7
 10
97.5
 20
53.5
 11
97.5
 21
46.5
  0
LINE
  8
0
  6
CONTINUOUS
 62
     7
 10
-8.2068624
 20
7.7071066
 11
-6.7926488
 21
6.2928929
  0
LINE
  8
0
  6
CONTINUOUS
 62
     7
 10
-6.7926488
 20
7.7071066
 11
-8.2068624
 21
6.2928934
  0
LINE
  8
0
  6
CENTER
 62
     7
 10
57.5
 20
6.3190765
 11
57.5
 21
-0.67401123
  0
LINE
  8
0
  6
CENTER
 62
     7
 10
77.5
 20
6.3190765
 11
77.5
 21
-0.67401123
  0
LINE
  8
0
  6
CENTER
 62
     7
 10
97.5
 20
6.3190765
 11
97.5
 21
-0.67401123
  0
LINE
  8
0
  6
CENTER
 62
     7
 10
57.5
 20
53.5
 11
57.5
 21
46.5
  0
LINE
  8
0
  6
CENTER
 62
     7
 10
77.5
 20
53.5
 11
77.5
 21
46.5
  0
LINE
  8
0
  6
CENTER
 62
     7
 10
77.5
 20
53.5
 11
77.5
 21
46.5
  0
ARC
  8
0
  6
CONTINUOUS
 62
     7
 10
45.799988
 20
6.9999847
 40
4
 50
163.39845
 51
196.64514
  0
ARC
  8
0
  6
CONTINUOUS
 62
     7
 10
42.445877
 20
7.9999847
 40
0.5
 50
72.047513
 51
163.39845
  0
ARC
  8
0
  6
CONTINUOUS
 62
     7
 10
42.445877
 20
6
 40
0.5
 50
196.60128
 51
287.95249
  0
CIRCLE
  8
0
  6
CONTINUOUS
 62
     7
 10
-7.4997559
 20
6.9999847
 40
1.4999981
  0
CIRCLE
  8
0
  6
CONTINUOUS
 62
     7
 10
7.4997559
 20
6.9999847
 40
1.4999981
  0
ARC
  8
0
  6
CONTINUOUS
 62
     7
 10
-4.0998659
 20
5.0999994
 40
1.1999998
 50
89.999982
 51
179.99996
  0
ARC
  8
0
  6
CONTINUOUS
 62
     7
 10
4.100049
 20
5.0999994
 40
1.1999998
 50
0
 51
89.999982
  0
ARC
  8
0
  6
CONTINUOUS
 62
     7
 10
45.799988
 20
57.5
 40
4
 50
163.39851
 51
196.60164
  0
ARC
  8
0
  6
CONTINUOUS
 62
     7
 10
42.445923
 20
58.499985
 40
0.5
 50
72.047513
 51
163.39851
  0
ARC
  8
0
  6
CONTINUOUS
 62
     7
 10
42.445923
 20
56.5
 40
0.5
 50
196.60128
 51
287.95249
  0
CIRCLE
  8
0
  6
CONTINUOUS
 62
     7
 10
54.5
 20
42.5
 40
1.5
  0
CIRCLE
  8
0
  6
CONTINUOUS
 62
     7
 10
54.499985
 20
42.5
 40
1.2999954
  0
CIRCLE
  8
0
  6
CONTINUOUS
 62
     7
 10
37.5
 20
50
 40
3
  0
CIRCLE
  8
0
  6
CONTINUOUS
 62
     7
 10
37.5
 20
50
 40
1.75
  0
ARC
  8
0
  6
CONTINUOUS
 62
     7
 10
-4.6498795
 20
3.7999954
 40
1
 50
278.61999
 51
81.38001
  0
ARC
  8
0
  6
CONTINUOUS
 62
     7
 10
4.6498795
 20
3.7999954
 40
1
 50
98.619899
 51
261.38003
  0
ARC
  8
0
  6
CONTINUOUS
 62
     7
 10
42.445923
 20
43.499985
 40
0.5
 50
72.047513
 51
163.39872
  0
ARC
  8
0
  6
CONTINUOUS
 62
     7
 10
45.799988
 20
42.499985
 40
4
 50
163.39829
 51
196.60148
  0
ARC
  8
0
  6
CONTINUOUS
 62
     7
 10
42.445923
 20
41.5
 40
0.5
 50
196.60149
 51
287.95249
  0
ARC
  8
0
  6
CONTINUOUS
 62
     7
 10
82.554077
 20
56.5
 40
0.5
 50
252.0476
 51
343.39873
  0
ARC
  8
0
  6
CONTINUOUS
 62
     7
 10
79.200012
 20
57.5
 40
4
 50
343.39832
 51
16.601475
  0
ARC
  8
0
  6
CONTINUOUS
 62
     7
 10
82.554077
 20
58.499985
 40
0.5
 50
16.601475
 51
107.9524
  0
ARC
  8
0
  6
CONTINUOUS
 62
     7
 10
82.554077
 20
43.499985
 40
0.5
 50
16.601273
 51
107.9524
  0
ARC
  8
0
  6
CONTINUOUS
 62
     7
 10
79.200012
 20
42.499985
 40
4
 50
343.39853
 51
16.601683
  0
ARC
  8
0
  6
CONTINUOUS
 62
     7
 10
82.554077
 20
41.5
 40
0.5
 50
252.0476
 51
343.39853
  0
ARC
  8
0
  6
CONTINUOUS
 62
     7
 10
82.554123
 20
7.9999847
 40
0.5
 50
16.601509
 51
107.9524
  0
ARC
  8
0
  6
CONTINUOUS
 62
     7
 10
79.200012
 20
6.9999847
 40
4
 50
343.35485
 51
16.601509
  0
ARC
  8
0
  6
CONTINUOUS
 62
     7
 10
82.554123
 20
6
 40
0.5
 50
252.0476
 51
343.39873
  0
CIRCLE
  8
0
  6
CONTINUOUS
 62
     7
 10
0
 20
7.5998931
 40
0.75
  0
TEXT
  8
0
  6
CONTINUOUS
 62
     7
 10
-1.5999999
 20
-16.8
 40
3.5999994
 41
0.87329051
  1
ＲＳＲ９ＮＸ
  0
TEXT
  8
0
  6
CONTINUOUS
 62
     7
 10
-1.5999999
 20
-22.8
 40
3.5999994
 41
1.3484849
  1
  C =2600N
  0
TEXT
  8
0
  6
CONTINUOUS
 62
     7
 10
-1.5999999
 20
-28.8
 40
3.5999994
 41
1.2361111
  1
  C0=3960N
  0
ENDSEC
  0
EOF
