  0
SECTION
  2
HEADER
  0
ENDSEC
  0
SECTION
  2
TABLES
  0
TABLE
  2
LTYPE
 70
    22
  0
LTYPE
  2
CONTINUOUS
 70
    64
  3
Solid line
 72
    65
 73
     0
 40
0.000000
  0
LTYPE
  2
DASHED
 70
    64
  3
__ __ __ __ __ __ __ __ __ __ __ __ __ __ __
 72
    65
 73
     2
 40
3.500000
 49
2.000000
 49
-1.500000
  0
LTYPE
  2
CENTER
 70
    64
  3
____ _ ____ _ ____ _ ____ _ ____ _ ____ _ ____
 72
    65
 73
     4
 40
17.500000
 49
13.000000
 49
-1.500000
 49
1.500000
 49
-1.500000
  0
LTYPE
  2
PHANTOM
 70
    64
  3
_____ _ _ _____ _ _ _____ _ _ _____ _ _ ____  
 72
    65
 73
     6
 40
15.500000
 49
8.000000
 49
-1.500000
 49
1.500000
 49
-1.500000
 49
1.500000
 49
-1.500000
  0
LTYPE
  2
DOT
 70
    64
  3
. . . . . . . . . . . . . . . . . . . . . . . .
 72
    65
 73
     2
 40
0.25
 49
0.0
 49
-0.25
  0
ENDTAB
  0
TABLE
  2
LAYER
 70
     1
  0
LAYER
  2
0
 70
     0
 62
     7
  6
CONTINUOUS
  0
ENDTAB
  0
TABLE
  2
STYLE
 70
     1
  0
STYLE
  2
STANDARD
 70
     0
 40
0.000000
 41
1.000000
 50
0.000000
 71
     0
 42
0.200000
  3
txt
  4
BIGFONT
  0
ENDTAB
  0
TABLE
  2
VIEW
 70
     0
  0
ENDTAB
  0
ENDSEC
  0
SECTION
  2
BLOCKS
  0
ENDSEC
  0
SECTION
  2
ENTITIES
  0
LINE
  8
0
  6
CONTINUOUS
 62
     7
 10
8.820068359375
 20
0
 11
3.10009765625
 21
0
  0
LINE
  8
0
  6
CONTINUOUS
 62
     7
 10
-10
 20
14.53999328613281
 11
-10
 21
13.37950134277344
  0
LINE
  8
0
  6
CONTINUOUS
 62
     7
 10
10
 20
14.53999328613281
 11
10
 21
12.99019622802734
  0
LINE
  8
0
  6
CONTINUOUS
 62
     7
 10
-9.039794921875
 20
15.5
 11
-8.797119140625
 21
15.5
  0
LINE
  8
0
  6
CONTINUOUS
 62
     7
 10
-6.839708805084229
 20
7.90634298324585
 11
-9.017693519592285
 21
11.67872619628906
  0
LINE
  8
0
  6
CONTINUOUS
 62
     7
 10
-7.096071243286133
 20
6.949710369110107
 11
-9.999852180480957
 21
5.273212909698486
  0
LINE
  8
0
  6
CONTINUOUS
 62
     7
 10
6.84079647064209
 20
7.905784606933594
 11
9.018782615661621
 21
11.67816734313965
  0
LINE
  8
0
  6
CONTINUOUS
 62
     7
 10
7.096458435058594
 20
6.949949264526367
 11
10.00026607513428
 21
5.273435592651367
  0
LINE
  8
0
  6
CONTINUOUS
 62
     7
 10
-9.039872169494629
 20
15.49982929229736
 11
-9.999866485595703
 21
14.53983688354492
  0
LINE
  8
0
  6
CONTINUOUS
 62
     7
 10
9.040242195129395
 20
15.49987316131592
 11
10.00025749206543
 21
14.53985786437988
  0
LINE
  8
0
  6
CONTINUOUS
 62
     7
 10
-8.819723129272461
 20
-0.0001255589013453573
 11
-9.999844551086426
 21
1.179997324943543
  0
LINE
  8
0
  6
CONTINUOUS
 62
     7
 10
8.820536613464356
 20
-0.0005639291484840214
 11
10.0005407333374
 21
1.179439663887024
  0
LINE
  8
0
  6
CONTINUOUS
 62
     7
 10
-2.5
 20
0.5999908447265625
 11
2.5
 21
0.5999908447265625
  0
LINE
  8
0
  6
CONTINUOUS
 62
     7
 10
-3.099487543106079
 20
-0.0005235609714873135
 11
-2.499488830566406
 21
0.5994748473167419
  0
LINE
  8
0
  6
CONTINUOUS
 62
     7
 10
2.500386953353882
 20
0.6001423001289368
 11
3.100417852401733
 21
0.0001111959063564427
  0
LINE
  8
0
  6
CONTINUOUS
 62
     7
 10
-9.660988807678223
 20
12.79294681549072
 11
-9.999702453613281
 21
13.37961673736572
  0
LINE
  8
0
  6
CONTINUOUS
 62
     7
 10
-6.502685546875
 20
15.5
 11
6.5029296875
 21
15.5
  0
LINE
  8
0
  6
CONTINUOUS
 62
     7
 10
8.79736328125
 20
15.5
 11
9.0400390625
 21
15.5
  0
LINE
  8
0
  6
CONTINUOUS
 62
     7
 10
-10
 20
5.27349853515625
 11
-10
 21
1.17999267578125
  0
LINE
  8
0
  6
CONTINUOUS
 62
     7
 10
10
 20
5.27349853515625
 11
10
 21
1.17999267578125
  0
LINE
  8
0
  6
CONTINUOUS
 62
     7
 10
-3.098963975906372
 20
0
 11
-8.81982421875
 21
0
  0
LINE
  8
0
  6
DASHED
 62
     7
 10
-4.75
 20
15.5
 11
-4.75
 21
7
  0
LINE
  8
0
  6
DASHED
 62
     7
 10
4.75
 20
15.5
 11
4.75
 21
7
  0
LINE
  8
0
  6
DASHED
 62
     7
 10
-3
 20
7
 11
-3
 21
0.09896398335695267
  0
LINE
  8
0
  6
DASHED
 62
     7
 10
3
 20
7
 11
3
 21
0.1005291864275932
  0
LINE
  8
0
  6
DASHED
 62
     7
 10
-4.75
 20
7
 11
4.75
 21
7
  0
LINE
  8
0
  6
CONTINUOUS
 62
     7
 10
-19.30033111572266
 20
27.29998779296875
 11
19.300048828125
 21
27.29998779296875
  0
LINE
  8
0
  6
CONTINUOUS
 62
     7
 10
20.050048828125
 20
25.79997253417969
 11
20.050048828125
 21
9.399993896484375
  0
LINE
  8
0
  6
CONTINUOUS
 62
     7
 10
18.55009269714356
 20
27.29988479614258
 11
20.05010223388672
 21
25.79987144470215
  0
LINE
  8
0
  6
CONTINUOUS
 62
     7
 10
20.05051612854004
 20
9.399471282958984
 11
18.55050277709961
 21
7.899459362030029
  0
LINE
  8
0
  6
CONTINUOUS
 62
     7
 10
1.426047563552856
 20
18.19999694824219
 11
6.824462890625
 21
18.19999694824219
  0
LINE
  8
0
  6
CONTINUOUS
 62
     7
 10
7.64013671875
 20
7.899993896484375
 11
21.46533203125
 21
7.899993896484375
  0
LINE
  8
0
  6
CONTINUOUS
 62
     7
 10
8.8134765625
 20
15.5
 11
9
 21
15.5
  0
LINE
  8
0
  6
CONTINUOUS
 62
     7
 10
7.470538139343262
 20
7.99789571762085
 11
7.640106678009033
 21
7.89999532699585
  0
LINE
  8
0
  6
CONTINUOUS
 62
     7
 10
8.475830078125
 20
18.19999694824219
 11
10.118408203125
 21
18.19999694824219
  0
LINE
  8
0
  6
CONTINUOUS
 62
     7
 10
12.300048828125
 20
16.01845359802246
 11
10.11851692199707
 21
18.19998741149902
  0
LINE
  8
0
  6
CONTINUOUS
 62
     7
 10
12.300048828125
 20
12.97135925292969
 11
12.300048828125
 21
16.01845359802246
  0
LINE
  8
0
  6
CONTINUOUS
 62
     7
 10
12.30052089691162
 20
12.97115898132324
 11
10.78955745697022
 21
10.35409259796143
  0
LINE
  8
0
  6
CONTINUOUS
 62
     7
 10
11.15514183044434
 20
8.988216400146484
 11
13.04005813598633
 21
7.899960517883301
  0
LINE
  8
0
  6
CONTINUOUS
 62
     7
 10
20.300048828125
 20
26.29997253417969
 11
20.300048828125
 21
9.29998779296875
  0
LINE
  8
0
  6
CONTINUOUS
 62
     7
 10
18.9501953125
 20
8.29998779296875
 11
19.300048828125
 21
8.29998779296875
  0
LINE
  8
0
  6
CONTINUOUS
 62
     7
 10
19.30025482177734
 20
27.3000659942627
 11
20.30031585693359
 21
26.29999351501465
  0
LINE
  8
0
  6
CONTINUOUS
 62
     7
 10
20.30006790161133
 20
9.299935340881348
 11
19.3000659942627
 21
8.299934387207031
  0
LINE
  8
0
  6
CENTER
 62
     7
 10
-6.369873046875
 20
22
 11
13.31005859375
 21
22
  0
LINE
  8
0
  6
CONTINUOUS
 62
     7
 10
1.780029296875
 20
25.5
 11
5.860107421875
 21
25.5
  0
LINE
  8
0
  6
CONTINUOUS
 62
     7
 10
1.780029296875
 20
18.5
 11
5.860107421875
 21
18.5
  0
LINE
  8
0
  6
CONTINUOUS
 62
     7
 10
1.130281090736389
 20
22.0000057220459
 11
1.780274868011475
 21
18.5000057220459
  0
LINE
  8
0
  6
CONTINUOUS
 62
     7
 10
1.130374550819397
 20
21.99990844726563
 11
1.793964624404907
 21
25.5731201171875
  0
LINE
  8
0
  6
CONTINUOUS
 62
     7
 10
3.440481901168823
 20
22.00002098083496
 11
4.090490341186523
 21
18.50002288818359
  0
LINE
  8
0
  6
CONTINUOUS
 62
     7
 10
3.440593004226685
 20
21.99986267089844
 11
4.090601444244385
 21
25.49986076354981
  0
LINE
  8
0
  6
CONTINUOUS
 62
     7
 10
5.950665473937988
 20
18.96984672546387
 11
5.860652923583984
 21
18.49983978271484
  0
LINE
  8
0
  6
CONTINUOUS
 62
     7
 10
5.950966835021973
 20
25.02015686035156
 11
5.8609619140625
 21
25.5001335144043
  0
LINE
  8
0
  6
CONTINUOUS
 62
     7
 10
7.766204357147217
 20
18.75422859191895
 11
10.52007484436035
 21
19.49986076354981
  0
LINE
  8
0
  6
CONTINUOUS
 62
     7
 10
7.750245571136475
 20
25.24988555908203
 11
10.52037620544434
 21
24.49985122680664
  0
LINE
  8
0
  6
CONTINUOUS
 62
     7
 10
0.002546134870499373
 20
17.38188171386719
 11
1.94785749912262
 21
18.49989128112793
  0
LINE
  8
0
  6
CONTINUOUS
 62
     7
 10
0.006673026829957962
 20
26.61515045166016
 11
1.938104271888733
 21
25.50003814697266
  0
LINE
  8
0
  6
CENTER
 62
     7
 10
0
 20
29
 11
0
 21
-1
  0
LINE
  8
0
  6
CONTINUOUS
 62
     7
 10
-20.0498046875
 20
9.399993896484375
 11
-20.0498046875
 21
25.80016708374023
  0
LINE
  8
0
  6
CONTINUOUS
 62
     7
 10
-18.54947090148926
 20
7.900132179260254
 11
-20.04948425292969
 21
9.400144577026367
  0
LINE
  8
0
  6
CONTINUOUS
 62
     7
 10
-6.82421875
 20
18.19999694824219
 11
-1.414054155349731
 21
18.19999694824219
  0
LINE
  8
0
  6
CONTINUOUS
 62
     7
 10
-21.465087890625
 20
7.899993896484375
 11
-7.639892578125
 21
7.899993896484375
  0
LINE
  8
0
  6
CONTINUOUS
 62
     7
 10
-7.639880657196045
 20
7.899831771850586
 11
-7.470206260681152
 21
7.997793197631836
  0
LINE
  8
0
  6
CONTINUOUS
 62
     7
 10
-10.1181640625
 20
18.19999694824219
 11
-8.4755859375
 21
18.19999694824219
  0
LINE
  8
0
  6
CONTINUOUS
 62
     7
 10
-10.11810111999512
 20
18.1998233795166
 11
-12.2998046875
 21
16.01811790466309
  0
LINE
  8
0
  6
CONTINUOUS
 62
     7
 10
-12.2998046875
 20
16.01811790466309
 11
-12.2998046875
 21
12.97135925292969
  0
LINE
  8
0
  6
CONTINUOUS
 62
     7
 10
-10.78884887695313
 20
10.35439682006836
 11
-12.29981231689453
 21
12.97146320343018
  0
LINE
  8
0
  6
CONTINUOUS
 62
     7
 10
-13.03988933563232
 20
7.899896621704102
 11
-11.15494632720947
 21
8.988167762756348
  0
LINE
  8
0
  6
CONTINUOUS
 62
     7
 10
-20.2998046875
 20
9.29998779296875
 11
-20.2998046875
 21
26.30050277709961
  0
LINE
  8
0
  6
CONTINUOUS
 62
     7
 10
-19.2998046875
 20
8.29998779296875
 11
-18.949951171875
 21
8.29998779296875
  0
LINE
  8
0
  6
CONTINUOUS
 62
     7
 10
-19.29972457885742
 20
8.299911499023438
 11
-20.29979133605957
 21
9.29997730255127
  0
LINE
  8
0
  6
CONTINUOUS
 62
     7
 10
-17.704833984375
 20
6.949984073638916
 11
-11.05483436584473
 21
6.949984073638916
  0
LINE
  8
0
  6
CONTINUOUS
 62
     7
 10
-17.704833984375
 20
6.949984073638916
 11
-17.704833984375
 21
7.899993896484375
  0
LINE
  8
0
  6
CONTINUOUS
 62
     7
 10
-3.997874021530151
 20
19.6917667388916
 11
0.002630653325468302
 21
17.3820743560791
  0
LINE
  8
0
  6
CONTINUOUS
 62
     7
 10
-3.997957468032837
 20
24.31345558166504
 11
0.006585025694221258
 21
26.61494636535645
  0
LINE
  8
0
  6
CONTINUOUS
 62
     7
 10
-3.998046875
 20
19.69168090820313
 11
-3.998046875
 21
24.31356811523438
  0
LINE
  8
0
  6
CONTINUOUS
 62
     7
 10
-11.53114891052246
 20
6
 11
-9.800832748413086
 21
6
  0
LINE
  8
0
  6
CONTINUOUS
 62
     7
 10
-9.80023193359375
 20
5.999597549438477
 11
-8.702751159667969
 21
7.899993896484375
  0
LINE
  8
0
  6
CONTINUOUS
 62
     7
 10
-11.53114891052246
 20
6.949984073638916
 11
-11.53114891052246
 21
6
  0
LINE
  8
0
  6
CONTINUOUS
 62
     7
 10
70
 20
0
 11
290
 21
0
  0
LINE
  8
0
  6
CONTINUOUS
 62
     7
 10
70
 20
15.5
 11
156
 21
15.5
  0
LINE
  8
0
  6
CONTINUOUS
 62
     7
 10
166.1000518798828
 20
7.900009155273438
 11
193.8999481201172
 21
7.900009155273438
  0
LINE
  8
0
  6
CONTINUOUS
 62
     7
 10
166.1000518798828
 20
27.29998779296875
 11
166.1000518798828
 21
7.900009155273438
  0
LINE
  8
0
  6
CONTINUOUS
 62
     7
 10
193.8999481201172
 20
27.29998779296875
 11
193.8999481201172
 21
7.900009155273438
  0
LINE
  8
0
  6
CONTINUOUS
 62
     7
 10
159
 20
27.29998779296875
 11
159
 21
8.29998779296875
  0
LINE
  8
0
  6
CONTINUOUS
 62
     7
 10
201
 20
27.29998779296875
 11
201
 21
8.29998779296875
  0
LINE
  8
0
  6
CONTINUOUS
 62
     7
 10
159
 20
27.29998779296875
 11
166.1000518798828
 21
27.29998779296875
  0
LINE
  8
0
  6
CONTINUOUS
 62
     7
 10
159
 20
8.29998779296875
 11
166.1000518798828
 21
8.29998779296875
  0
LINE
  8
0
  6
CONTINUOUS
 62
     7
 10
193.8999481201172
 20
27.29998779296875
 11
201
 21
27.29998779296875
  0
LINE
  8
0
  6
CONTINUOUS
 62
     7
 10
193.8999481201172
 20
8.29998779296875
 11
201
 21
8.29998779296875
  0
LINE
  8
0
  6
CONTINUOUS
 62
     7
 10
159
 20
27.29998779296875
 11
159
 21
7.900009155273438
  0
LINE
  8
0
  6
CONTINUOUS
 62
     7
 10
158
 20
27.29998779296875
 11
158
 21
7.900009155273438
  0
LINE
  8
0
  6
CONTINUOUS
 62
     7
 10
156
 20
16.19999694824219
 11
156
 21
7.900009155273438
  0
LINE
  8
0
  6
CONTINUOUS
 62
     7
 10
158
 20
27.29998779296875
 11
159
 21
27.29998779296875
  0
LINE
  8
0
  6
CONTINUOUS
 62
     7
 10
156
 20
7.900009155273438
 11
159
 21
7.900009155273438
  0
LINE
  8
0
  6
CONTINUOUS
 62
     7
 10
156.0005493164063
 20
16.1993408203125
 11
158.0005493164063
 21
18.1993465423584
  0
LINE
  8
0
  6
CONTINUOUS
 62
     7
 10
201
 20
7.899993896484375
 11
201
 21
27.29998779296875
  0
LINE
  8
0
  6
CENTER
 62
     7
 10
144.800048828125
 20
22
 11
160.728515625
 21
22
  0
LINE
  8
0
  6
CONTINUOUS
 62
     7
 10
156
 20
17.8800048828125
 11
156
 21
26.11997985839844
  0
LINE
  8
0
  6
CONTINUOUS
 62
     7
 10
153
 20
26
 11
156
 21
26
  0
LINE
  8
0
  6
CONTINUOUS
 62
     7
 10
158
 20
26.6199951171875
 11
156.5
 21
26.6199951171875
  0
LINE
  8
0
  6
CONTINUOUS
 62
     7
 10
157.1812133789063
 20
17.3800048828125
 11
156.5
 21
17.3800048828125
  0
LINE
  8
0
  6
CONTINUOUS
 62
     7
 10
158
 20
19.69000244140625
 11
156
 21
19.69000244140625
  0
LINE
  8
0
  6
CONTINUOUS
 62
     7
 10
156.5
 20
17.37990951538086
 11
156.0000610351563
 21
17.87985610961914
  0
LINE
  8
0
  6
CONTINUOUS
 62
     7
 10
156.0000762939453
 20
26.11981964111328
 11
156.5000610351563
 21
26.61980819702148
  0
LINE
  8
0
  6
CONTINUOUS
 62
     7
 10
154.10009765625
 20
18.5
 11
148.89990234375
 21
18.5
  0
LINE
  8
0
  6
CONTINUOUS
 62
     7
 10
154.10009765625
 20
18.45999145507813
 11
154.10009765625
 21
18.5
  0
LINE
  8
0
  6
CONTINUOUS
 62
     7
 10
155.6004486083984
 20
21.9998664855957
 11
154.1004486083984
 21
18.49986076354981
  0
LINE
  8
0
  6
CONTINUOUS
 62
     7
 10
154.7002563476563
 20
21.99985504150391
 11
153.1002655029297
 21
18.49987411499023
  0
LINE
  8
0
  6
CONTINUOUS
 62
     7
 10
148.9002685546875
 20
18.49954032897949
 11
148.5002593994141
 21
19.07956504821777
  0
LINE
  8
0
  6
CONTINUOUS
 62
     7
 10
148.9001159667969
 20
25.4997501373291
 11
148.5001220703125
 21
24.91974258422852
  0
LINE
  8
0
  6
CONTINUOUS
 62
     7
 10
154.10009765625
 20
25.5
 11
148.89990234375
 21
25.5
  0
LINE
  8
0
  6
CONTINUOUS
 62
     7
 10
154.7001190185547
 20
21.99982643127441
 11
153.1001129150391
 21
25.49983596801758
  0
LINE
  8
0
  6
CONTINUOUS
 62
     7
 10
155.5999755859375
 20
21.99987030029297
 11
154.0999908447266
 21
25.49984741210938
  0
LINE
  8
0
  6
CONTINUOUS
 62
     7
 10
153
 20
18
 11
156
 21
18
  0
LINE
  8
0
  6
CONTINUOUS
 62
     7
 10
159
 20
7.899993896484375
 11
201
 21
7.899993896484375
  0
LINE
  8
0
  6
CONTINUOUS
 62
     7
 10
159
 20
7.899993896484375
 11
159
 21
6
  0
LINE
  8
0
  6
CONTINUOUS
 62
     7
 10
201
 20
7.899993896484375
 11
201
 21
6
  0
LINE
  8
0
  6
CONTINUOUS
 62
     7
 10
201.9999694824219
 20
7.900009155273438
 11
201.9999694824219
 21
27.29998779296875
  0
LINE
  8
0
  6
CONTINUOUS
 62
     7
 10
203.9999694824219
 20
7.900009155273438
 11
203.9999694824219
 21
16.19999694824219
  0
LINE
  8
0
  6
CONTINUOUS
 62
     7
 10
200.9999694824219
 20
27.29998779296875
 11
201.9999694824219
 21
27.29998779296875
  0
LINE
  8
0
  6
CONTINUOUS
 62
     7
 10
200.9999694824219
 20
7.900009155273438
 11
203.9999694824219
 21
7.900009155273438
  0
LINE
  8
0
  6
CONTINUOUS
 62
     7
 10
202.0001983642578
 20
18.19981193542481
 11
204.0001525878906
 21
16.19985008239746
  0
LINE
  8
0
  6
CONTINUOUS
 62
     7
 10
-18.55009269714356
 20
27.29988479614258
 11
-20.05010223388672
 21
25.79987144470215
  0
LINE
  8
0
  6
CONTINUOUS
 62
     7
 10
-19.30025482177734
 20
27.3000659942627
 11
-20.30031585693359
 21
26.29999351501465
  0
LINE
  8
0
  6
CONTINUOUS
 62
     7
 10
158
 20
24.30999755859375
 11
156
 21
24.30999755859375
  0
LINE
  8
0
  6
CONTINUOUS
 62
     7
 10
70
 20
15.5
 11
70
 21
0
  0
LINE
  8
0
  6
CENTER
 62
     7
 10
90
 20
16.5
 11
90
 21
-1
  0
LINE
  8
0
  6
DASHED
 62
     7
 10
85.25
 20
15.5
 11
85.25
 21
7
  0
LINE
  8
0
  6
DASHED
 62
     7
 10
94.75
 20
15.5
 11
94.75
 21
7
  0
LINE
  8
0
  6
DASHED
 62
     7
 10
93
 20
7
 11
93
 21
0
  0
LINE
  8
0
  6
DASHED
 62
     7
 10
87
 20
7
 11
87
 21
0
  0
LINE
  8
0
  6
DASHED
 62
     7
 10
85.25
 20
7
 11
94.75
 21
7
  0
LINE
  8
0
  6
CONTINUOUS
 62
     7
 10
70
 20
12.99019622802734
 11
156
 21
12.99019622802734
  0
LINE
  8
0
  6
CONTINUOUS
 62
     7
 10
70
 20
11.67633628845215
 11
156
 21
11.67633628845215
  0
LINE
  8
0
  6
CONTINUOUS
 62
     7
 10
70
 20
5.273589134216309
 11
290
 21
5.273589134216309
  0
LINE
  8
0
  6
CONTINUOUS
 62
     7
 10
70
 20
14.540114402771
 11
156
 21
14.540114402771
  0
LINE
  8
0
  6
CENTER
 62
     7
 10
270
 20
16.5
 11
270
 21
-1
  0
LINE
  8
0
  6
CONTINUOUS
 62
     7
 10
290
 20
15.5
 11
290
 21
0
  0
LINE
  8
0
  6
CONTINUOUS
 62
     7
 10
290
 20
15.5
 11
204
 21
15.5
  0
LINE
  8
0
  6
CONTINUOUS
 62
     7
 10
290
 20
11.67633628845215
 11
204
 21
11.67633628845215
  0
LINE
  8
0
  6
CONTINUOUS
 62
     7
 10
290
 20
12.99019622802734
 11
204
 21
12.99019622802734
  0
LINE
  8
0
  6
CONTINUOUS
 62
     7
 10
290
 20
14.540114402771
 11
204
 21
14.540114402771
  0
LINE
  8
0
  6
CONTINUOUS
 62
     7
 10
159
 20
97.19999694824219
 11
166.1000518798828
 21
97.19999694824219
  0
LINE
  8
0
  6
CONTINUOUS
 62
     7
 10
158
 20
97.44999694824219
 11
159
 21
97.44999694824219
  0
LINE
  8
0
  6
CONTINUOUS
 62
     7
 10
70
 20
110.9969940185547
 11
147.7653350830078
 21
110.9969940185547
  0
LINE
  8
0
  6
CONTINUOUS
 62
     7
 10
70
 20
107.5
 11
148.6378479003906
 21
107.5
  0
LINE
  8
0
  6
CONTINUOUS
 62
     7
 10
156.0000152587891
 20
106.8000030517578
 11
158.0000152587891
 21
104.8000030517578
  0
LINE
  8
0
  6
CONTINUOUS
 62
     7
 10
70
 20
108.7027130126953
 11
147.5342712402344
 21
108.7027130126953
  0
LINE
  8
0
  6
CONTINUOUS
 62
     7
 10
70
 20
108.4598846435547
 11
147.5170135498047
 21
108.4598846435547
  0
LINE
  8
0
  6
CONTINUOUS
 62
     7
 10
70
 20
126.5401153564453
 11
156
 21
126.5401153564453
  0
LINE
  8
0
  6
CONTINUOUS
 62
     7
 10
156
 20
106.8000030517578
 11
156
 21
111.7085037231445
  0
LINE
  8
0
  6
CONTINUOUS
 62
     7
 10
70
 20
107.5
 11
70
 21
127.5
  0
LINE
  8
0
  6
CONTINUOUS
 62
     7
 10
70
 20
126.2972869873047
 11
156
 21
126.2972869873047
  0
LINE
  8
0
  6
CONTINUOUS
 62
     7
 10
156.0000152587891
 20
128.1999969482422
 11
158.0000152587891
 21
130.1999969482422
  0
LINE
  8
0
  6
CONTINUOUS
 62
     7
 10
70
 20
127.5
 11
156
 21
127.5
  0
LINE
  8
0
  6
CONTINUOUS
 62
     7
 10
159
 20
97.19999694824219
 11
159
 21
137.8000030517578
  0
LINE
  8
0
  6
CONTINUOUS
 62
     7
 10
158
 20
137.5500030517578
 11
159
 21
137.5500030517578
  0
LINE
  8
0
  6
CONTINUOUS
 62
     7
 10
70
 20
124.0030059814453
 11
156
 21
124.0030059814453
  0
LINE
  8
0
  6
CONTINUOUS
 62
     7
 10
159
 20
137.8000030517578
 11
166.1000518798828
 21
137.8000030517578
  0
LINE
  8
0
  6
CONTINUOUS
 62
     7
 10
158
 20
97.44999694824219
 11
158
 21
113.5
  0
LINE
  8
0
  6
CENTER
 62
     7
 10
90
 20
123.25
 11
90
 21
111.75
  0
LINE
  8
0
  6
CENTER
 62
     7
 10
150
 20
123.25
 11
150
 21
111.75
  0
LINE
  8
0
  6
CONTINUOUS
 62
     7
 10
290
 20
108.4598846435547
 11
204
 21
108.4598846435547
  0
LINE
  8
0
  6
CONTINUOUS
 62
     7
 10
202
 20
97.44999694824219
 11
202
 21
137.5500030517578
  0
LINE
  8
0
  6
CONTINUOUS
 62
     7
 10
201
 20
137.8000030517578
 11
193.8999481201172
 21
137.8000030517578
  0
LINE
  8
0
  6
CONTINUOUS
 62
     7
 10
290
 20
124.0030059814453
 11
204
 21
124.0030059814453
  0
LINE
  8
0
  6
CONTINUOUS
 62
     7
 10
290
 20
127.5
 11
204
 21
127.5
  0
LINE
  8
0
  6
CONTINUOUS
 62
     7
 10
202
 20
137.5500030517578
 11
201
 21
137.5500030517578
  0
LINE
  8
0
  6
CONTINUOUS
 62
     7
 10
201
 20
97.19999694824219
 11
201
 21
137.8000030517578
  0
LINE
  8
0
  6
CONTINUOUS
 62
     7
 10
290
 20
126.2972869873047
 11
204
 21
126.2972869873047
  0
LINE
  8
0
  6
CONTINUOUS
 62
     7
 10
193.8999481201172
 20
88
 11
193.8999481201172
 21
147
  0
LINE
  8
0
  6
CENTER
 62
     7
 10
210
 20
123.25
 11
210
 21
111.75
  0
LINE
  8
0
  6
CONTINUOUS
 62
     7
 10
203.9999847412109
 20
128.1999969482422
 11
201.9999847412109
 21
130.1999969482422
  0
LINE
  8
0
  6
CONTINUOUS
 62
     7
 10
204
 20
106.8000030517578
 11
204
 21
128.1999969482422
  0
LINE
  8
0
  6
CONTINUOUS
 62
     7
 10
290
 20
126.5401153564453
 11
204
 21
126.5401153564453
  0
LINE
  8
0
  6
CONTINUOUS
 62
     7
 10
290
 20
107.5
 11
290
 21
127.5
  0
LINE
  8
0
  6
CENTER
 62
     7
 10
281.5499877929688
 20
117.5
 11
59.54999923706055
 21
117.5
  0
LINE
  8
0
  6
CONTINUOUS
 62
     7
 10
290
 20
108.7027130126953
 11
204
 21
108.7027130126953
  0
LINE
  8
0
  6
CONTINUOUS
 62
     7
 10
203.9999847412109
 20
106.8000030517578
 11
201.9999847412109
 21
104.7999954223633
  0
LINE
  8
0
  6
CONTINUOUS
 62
     7
 10
290
 20
107.5
 11
204
 21
107.5
  0
LINE
  8
0
  6
CENTER
 62
     7
 10
270
 20
123.25
 11
270
 21
111.75
  0
LINE
  8
0
  6
CONTINUOUS
 62
     7
 10
202
 20
97.44999694824219
 11
201
 21
97.44999694824219
  0
LINE
  8
0
  6
CONTINUOUS
 62
     7
 10
290
 20
110.9969940185547
 11
204
 21
110.9969940185547
  0
LINE
  8
0
  6
CONTINUOUS
 62
     7
 10
201
 20
97.19999694824219
 11
193.8999481201172
 21
97.19999694824219
  0
LINE
  8
0
  6
CONTINUOUS
 62
     7
 10
157.0000305175781
 20
113.4999847412109
 11
157.0000305175781
 21
121.4999847412109
  0
LINE
  8
0
  6
CONTINUOUS
 62
     7
 10
153.7001190185547
 20
121.5
 11
157.0000305175781
 21
121.5
  0
LINE
  8
0
  6
CONTINUOUS
 62
     7
 10
155.3201446533203
 20
113.5
 11
157.0000305175781
 21
113.5
  0
LINE
  8
0
  6
CONTINUOUS
 62
     7
 10
149.7001037597656
 20
117.5
 11
149.7001037597656
 21
115.827880859375
  0
LINE
  8
0
  6
CONTINUOUS
 62
     7
 10
157.0000152587891
 20
121.5
 11
159.0000152587891
 21
121.5
  0
LINE
  8
0
  6
CONTINUOUS
 62
     7
 10
157.0000152587891
 20
113.5
 11
159.0000152587891
 21
113.5
  0
LINE
  8
0
  6
CENTER
 62
     7
 10
149.2518768310547
 20
105.9778900146484
 11
154.1171875
 21
117.7237701416016
  0
LINE
  8
0
  6
CONTINUOUS
 62
     7
 10
147.4828033447266
 20
107.9784469604492
 11
151.9174194335938
 21
106.1415634155273
  0
LINE
  8
0
  6
CONTINUOUS
 62
     7
 10
147.6845703125
 20
110.8173446655273
 11
153.7821655273438
 21
108.2916412353516
  0
LINE
  8
0
  6
CONTINUOUS
 62
     7
 10
147.4828033447266
 20
107.9784469604492
 11
147.6845550537109
 21
110.8173446655273
  0
LINE
  8
0
  6
CONTINUOUS
 62
     7
 10
151.9174346923828
 20
106.1415634155273
 11
153.7821807861328
 21
108.2916412353516
  0
LINE
  8
0
  6
CONTINUOUS
 62
     7
 10
148.4232788085938
 20
114.5381927490234
 11
148.8379516601563
 21
115.5392608642578
  0
LINE
  8
0
  6
CONTINUOUS
 62
     7
 10
155.890869140625
 20
111.4450073242188
 11
156.3055114746094
 21
112.4460754394531
  0
LINE
  8
0
  6
CONTINUOUS
 62
     7
 10
149.6173706054688
 20
115.8620910644531
 11
148.8379364013672
 21
115.5392303466797
  0
LINE
  8
0
  6
CONTINUOUS
 62
     7
 10
150.0605621337891
 20
113.2105941772461
 11
150.9331359863281
 21
115.3171615600586
  0
LINE
  8
0
  6
CONTINUOUS
 62
     7
 10
149.6174011230469
 20
115.8621673583984
 11
155.9826965332031
 21
113.2255706787109
  0
LINE
  8
0
  6
CONTINUOUS
 62
     7
 10
156.3055419921875
 20
112.4460601806641
 11
155.9826812744141
 21
113.2255172729492
  0
LINE
  8
0
  6
CONTINUOUS
 62
     7
 10
148.8148345947266
 20
112.2394866943359
 11
153.9885406494141
 21
110.0964508056641
  0
LINE
  8
0
  6
CONTINUOUS
 62
     7
 10
156
 20
121.5
 11
156
 21
128.1999969482422
  0
LINE
  8
0
  6
CONTINUOUS
 62
     7
 10
158
 20
121.5
 11
158
 21
137.5500030517578
  0
LINE
  8
0
  6
CONTINUOUS
 62
     7
 10
148.7448272705078
 20
113.7555923461914
 11
155.1101226806641
 21
111.1190032958984
  0
LINE
  8
0
  6
CONTINUOUS
 62
     7
 10
153.7943267822266
 20
111.6640090942383
 11
154.6669006347656
 21
113.7705841064453
  0
LINE
  8
0
  6
CONTINUOUS
 62
     7
 10
155.069091796875
 20
110.9969940185547
 11
156
 21
110.9969940185547
  0
LINE
  8
0
  6
CONTINUOUS
 62
     7
 10
153.9215393066406
 20
108.7027130126953
 11
156
 21
108.7027130126953
  0
LINE
  8
0
  6
CONTINUOUS
 62
     7
 10
153.8465423583984
 20
108.4598846435547
 11
156
 21
108.4598846435547
  0
LINE
  8
0
  6
CONTINUOUS
 62
     7
 10
153.0955810546875
 20
107.5
 11
156
 21
107.5
  0
LINE
  8
0
  6
CONTINUOUS
 62
     7
 10
156
 20
113.1836318969727
 11
156
 21
113.5
  0
LINE
  8
0
  6
CONTINUOUS
 62
     7
 10
167.0001983642578
 20
28
 11
193.0001678466797
 21
28
  0
LINE
  8
0
  6
CENTER
 62
     7
 10
180
 20
7.29998779296875
 11
180
 21
29
  0
LINE
  8
0
  6
CONTINUOUS
 62
     7
 10
-28.599853515625
 20
28
 11
-18.449951171875
 21
28
  0
LINE
  8
0
  6
CONTINUOUS
 62
     7
 10
-29.5
 20
27.09999084472656
 11
-29.5
 21
20
  0
LINE
  8
0
  6
CONTINUOUS
 62
     7
 10
-5.5498046875
 20
28
 11
5.550048828125
 21
28
  0
LINE
  8
0
  6
CONTINUOUS
 62
     7
 10
-18
 20
27.54998779296875
 11
-5.99993896484375
 21
27.54998779296875
  0
LINE
  8
0
  6
CONTINUOUS
 62
     7
 10
-5.549839496612549
 20
27.99980354309082
 11
-5.999826431274414
 21
27.54980850219727
  0
LINE
  8
0
  6
CONTINUOUS
 62
     7
 10
-18.44968032836914
 20
27.9998893737793
 11
-17.99979782104492
 21
27.55000686645508
  0
LINE
  8
0
  6
CONTINUOUS
 62
     7
 10
-28.499755859375
 20
19
 11
-28.276123046875
 21
19
  0
LINE
  8
0
  6
CONTINUOUS
 62
     7
 10
-28.59980201721191
 20
27.9998722076416
 11
-29.49980354309082
 21
27.09986686706543
  0
LINE
  8
0
  6
CONTINUOUS
 62
     7
 10
-29.49969673156738
 20
19.99996185302734
 11
-28.49980354309082
 21
19.00006866455078
  0
LINE
  8
0
  6
CONTINUOUS
 62
     7
 10
-25.37804412841797
 20
16.77656745910645
 11
-23.39680099487305
 21
9.382465362548828
  0
LINE
  8
0
  6
CENTER
 62
     7
 10
-24.5
 20
29
 11
-24.5
 21
12.07072448730469
  0
LINE
  8
0
  6
DASHED
 62
     7
 10
-27.25
 20
28
 11
-27.25
 21
19
  0
LINE
  8
0
  6
DASHED
 62
     7
 10
-21.75
 20
28
 11
-21.75
 21
19
  0
LINE
  8
0
  6
DASHED
 62
     7
 10
-19.75
 20
19
 11
-19.75
 21
7.899993896484375
  0
LINE
  8
0
  6
CONTINUOUS
 62
     7
 10
18.4501953125
 20
28
 11
28.60009765625
 21
28
  0
LINE
  8
0
  6
CONTINUOUS
 62
     7
 10
29.5
 20
20
 11
29.5
 21
27.09999084472656
  0
LINE
  8
0
  6
CONTINUOUS
 62
     7
 10
6
 20
27.54998779296875
 11
18
 21
27.54998779296875
  0
LINE
  8
0
  6
CONTINUOUS
 62
     7
 10
6.000259876251221
 20
27.54990005493164
 11
5.550208568572998
 21
27.99995994567871
  0
LINE
  8
0
  6
CONTINUOUS
 62
     7
 10
18.00020980834961
 20
27.54973983764648
 11
18.4502124786377
 21
27.99974250793457
  0
LINE
  8
0
  6
CONTINUOUS
 62
     7
 10
28.2763671875
 20
19
 11
28.5
 21
19
  0
LINE
  8
0
  6
CENTER
 62
     7
 10
24.5
 20
12.07072448730469
 11
24.5
 21
29
  0
LINE
  8
0
  6
CONTINUOUS
 62
     7
 10
23.39741706848145
 20
9.382284164428711
 11
25.37866020202637
 21
16.7763843536377
  0
LINE
  8
0
  6
CONTINUOUS
 62
     7
 10
29.50015068054199
 20
27.0998420715332
 11
28.60002136230469
 21
27.99997711181641
  0
LINE
  8
0
  6
CONTINUOUS
 62
     7
 10
28.50022697448731
 20
18.99977493286133
 11
29.50022888183594
 21
19.99977493286133
  0
LINE
  8
0
  6
CONTINUOUS
 62
     7
 10
166.1002960205078
 20
18.99996948242188
 11
193.9001770019531
 21
18.99996948242188
  0
LINE
  8
0
  6
DASHED
 62
     7
 10
-28.276123046875
 20
19
 11
-19.75
 21
19
  0
LINE
  8
0
  6
DASHED
 62
     7
 10
182.75
 20
18.99996948242188
 11
182.75
 21
28
  0
LINE
  8
0
  6
CONTINUOUS
 62
     7
 10
193.0002593994141
 20
27.99989318847656
 11
193.9003601074219
 21
27.09977722167969
  0
LINE
  8
0
  6
DASHED
 62
     7
 10
177.25
 20
18.99996948242188
 11
177.25
 21
28
  0
LINE
  8
0
  6
CONTINUOUS
 62
     7
 10
166.1003723144531
 20
27.09981155395508
 11
167.0003509521484
 21
27.99980163574219
  0
LINE
  8
0
  6
CONTINUOUS
 62
     7
 10
184.7503509521484
 20
18.9998664855957
 11
182.2614135742188
 21
9.662430763244629
  0
LINE
  8
0
  6
CONTINUOUS
 62
     7
 10
175.2502136230469
 20
18.99974822998047
 11
177.7391052246094
 21
9.66245174407959
  0
LINE
  8
0
  6
CONTINUOUS
 62
     7
 10
193.8999481201172
 20
88
 11
166.1000518798828
 21
88
  0
LINE
  8
0
  6
CONTINUOUS
 62
     7
 10
193.8999481201172
 20
147
 11
166.1000518798828
 21
147
  0
LINE
  8
0
  6
CONTINUOUS
 62
     7
 10
166.0999450683594
 20
88
 11
166.0999450683594
 21
147
  0
LINE
  8
0
  6
CENTER
 62
     7
 10
179.9999389648438
 20
96.75
 11
179.9999389648438
 21
89.25
  0
LINE
  8
0
  6
CENTER
 62
     7
 10
176.2499389648438
 20
93
 11
183.7499389648438
 21
93
  0
LINE
  8
0
  6
CENTER
 62
     7
 10
179.9999389648438
 20
138.25
 11
179.9999389648438
 21
145.75
  0
LINE
  8
0
  6
CENTER
 62
     7
 10
176.2499389648438
 20
142
 11
183.7499389648438
 21
142
  0
LINE
  8
0
  6
CONTINUOUS
 62
     7
 10
193.8999481201172
 20
111.9498291015625
 11
166.0999450683594
 21
111.9498291015625
  0
LINE
  8
0
  6
CONTINUOUS
 62
     7
 10
193.8999481201172
 20
99.04953002929688
 11
166.0999450683594
 21
99.04953002929688
  0
LINE
  8
0
  6
CONTINUOUS
 62
     7
 10
193.8999481201172
 20
123.0501708984375
 11
166.0999450683594
 21
123.0501708984375
  0
LINE
  8
0
  6
CONTINUOUS
 62
     7
 10
193.8999481201172
 20
135.9504699707031
 11
166.0999450683594
 21
135.9504699707031
  0
LINE
  8
0
  6
CENTER
 62
     7
 10
210
 20
16.5
 11
210
 21
-1
  0
LINE
  8
0
  6
CENTER
 62
     7
 10
150
 20
16.5
 11
150
 21
-1
  0
LINE
  8
0
  6
CONTINUOUS
 62
     7
 10
17.704833984375
 20
6.949984073638916
 11
17.704833984375
 21
7.899993896484375
  0
LINE
  8
0
  6
CONTINUOUS
 62
     7
 10
17.704833984375
 20
6.949984073638916
 11
11.05483436584473
 21
6.949984073638916
  0
LINE
  8
0
  6
CONTINUOUS
 62
     7
 10
11.53114891052246
 20
6.949984073638916
 11
11.53114891052246
 21
6
  0
LINE
  8
0
  6
CONTINUOUS
 62
     7
 10
9.80023193359375
 20
5.999597549438477
 11
8.702751159667969
 21
7.899993896484375
  0
LINE
  8
0
  6
CONTINUOUS
 62
     7
 10
11.53114891052246
 20
6
 11
9.800832748413086
 21
6
  0
LINE
  8
0
  6
CONTINUOUS
 62
     7
 10
159
 20
6.949984073638916
 11
201
 21
6.949984073638916
  0
LINE
  8
0
  6
CONTINUOUS
 62
     7
 10
159
 20
6
 11
201
 21
6
  0
ARC
  8
0
  6
CONTINUOUS
 62
     7
 10
-7.64990234375
 20
16.68598937988281
 40
1.649999618530273
 50
225.9545322552649
 51
314.0454627357787
  0
ARC
  8
0
  6
CONTINUOUS
 62
     7
 10
-10.6552734375
 20
11.47599792480469
 40
1.649999618530274
 50
7.05314020490028
 51
52.94684438927891
  0
ARC
  8
0
  6
CONTINUOUS
 62
     7
 10
7.650146484375
 20
16.68598937988281
 40
1.649999618530273
 50
225.9545322552649
 51
314.0454627357787
  0
ARC
  8
0
  6
CONTINUOUS
 62
     7
 10
10.655517578125
 20
11.47599792480469
 40
1.649999618530273
 50
113.4084678090809
 51
172.9469467663261
  0
ARC
  8
0
  6
CONTINUOUS
 62
     7
 10
-7.446044921875
 20
7.55621337890625
 40
0.6999999880790714
 50
300.0000119907263
 51
29.99999058954229
  0
ARC
  8
0
  6
CONTINUOUS
 62
     7
 10
7.4462890625
 20
7.55621337890625
 40
0.6999999880790713
 50
150.0000246646978
 51
239.9999520370951
  0
ARC
  8
0
  6
CONTINUOUS
 62
     7
 10
7.650146484375
 20
18.66999816894531
 40
0.9499995708465582
 50
209.652455310332
 51
330.3475465109009
  0
ARC
  8
0
  6
CONTINUOUS
 62
     7
 10
11.6552734375
 20
9.854293823242188
 40
1.000000000000001
 50
150.0000246646978
 51
239.9999520370951
  0
ARC
  8
0
  6
CONTINUOUS
 62
     7
 10
7.720458984375
 20
8.43096923828125
 40
0.4999999999999996
 50
153.2050226308346
 51
239.9999520370951
  0
ARC
  8
0
  6
CONTINUOUS
 62
     7
 10
7.610107421875
 20
19.70999145507813
 40
0.9683421850204466
 50
215.3314570768741
 51
278.2972225067941
  0
ARC
  8
0
  6
CONTINUOUS
 62
     7
 10
6.6201171875
 20
17.91999816894531
 40
1.246148109436035
 50
80.76452806729958
 51
142.1250351177266
  0
ARC
  8
0
  6
CONTINUOUS
 62
     7
 10
6.6201171875
 20
26.08000183105469
 40
1.254199028015136
 50
217.8749648822735
 51
279.2353626496737
  0
ARC
  8
0
  6
CONTINUOUS
 62
     7
 10
7.610107421875
 20
24.28999328613281
 40
0.9701611399650563
 50
81.7028867762326
 51
144.668542923126
  0
ARC
  8
0
  6
CONTINUOUS
 62
     7
 10
0
 20
22
 40
3.998106002807619
 50
61.09402038976974
 51
298.9059076658729
  0
ARC
  8
0
  6
CONTINUOUS
 62
     7
 10
-7.64990234375
 20
18.66999816894531
 40
0.9499995708465574
 50
209.652455310332
 51
330.3475465109009
  0
ARC
  8
0
  6
CONTINUOUS
 62
     7
 10
-11.655029296875
 20
9.854293823242188
 40
1
 50
300.0000666322396
 51
29.99997351406931
  0
ARC
  8
0
  6
CONTINUOUS
 62
     7
 10
-7.72021484375
 20
8.43096923828125
 40
0.5000000000000001
 50
300.0000666322396
 51
29.99998375935306
  0
ARC
  8
0
  6
CONTINUOUS
 62
     7
 10
-11.05483436584473
 20
7.899993896484375
 40
0.9499999284744259
 50
270.0000179860894
 51
0.0003091797122737126
  0
ARC
  8
0
  6
CONTINUOUS
 62
     7
 10
153
 20
22.00009155273438
 40
3.999999999999998
 50
89.99998201391055
 51
118.4958044387708
  0
ARC
  8
0
  6
CONTINUOUS
 62
     7
 10
153
 20
22.00009155273438
 40
3.982465744018556
 50
241.5040862782025
 51
269.9999087030627
  0
CIRCLE
  8
0
  6
CONTINUOUS
 62
     7
 10
90
 20
117.5
 40
4.75
  0
CIRCLE
  8
0
  6
CONTINUOUS
 62
     7
 10
90
 20
117.5
 40
3
  0
ARC
  8
0
  6
CONTINUOUS
 62
     7
 10
150.7333679199219
 20
109.5544738769531
 40
3.299999237060557
 50
131.5803705110075
 51
157.4999548639651
  0
ARC
  8
0
  6
CONTINUOUS
 62
     7
 10
150.7333679199219
 20
109.5544738769531
 40
3.29999923706055
 50
337.5000181569006
 51
3.419602296415186
  0
ARC
  8
0
  6
CONTINUOUS
 62
     7
 10
142.8170166015625
 20
112.4005737304688
 40
6.00000000000001
 50
2.43365082934552
 51
20.87173987704913
  0
ARC
  8
0
  6
CONTINUOUS
 62
     7
 10
158.3435363769531
 20
105.9692687988281
 40
6.000000000000011
 50
114.1278165022775
 51
132.5663219780771
  0
ARC
  8
0
  6
CONTINUOUS
 62
     7
 10
148.0122985839844
 20
112.6213684082031
 40
0.7999999523162822
 50
311.5798327472963
 51
2.433049772698627
  0
ARC
  8
0
  6
CONTINUOUS
 62
     7
 10
154.8260498046875
 20
109.7990264892578
 40
0.7999999523162747
 50
132.5669776762372
 51
183.4201402735702
  0
ARC
  8
0
  6
CONTINUOUS
 62
     7
 10
153.7001037597656
 20
117.5
 40
3.999999999999998
 50
89.99998201391055
 51
180.0000186693347
  0
ARC
  8
0
  6
CONTINUOUS
 62
     7
 10
-21.465087890625
 20
9.899993896484375
 40
2
 50
195.0001149367672
 51
270.0004551181962
  0
ARC
  8
0
  6
CONTINUOUS
 62
     7
 10
-28.276123046875
 20
16
 40
3
 50
14.99997651175091
 51
89.99987273088391
  0
ARC
  8
0
  6
CONTINUOUS
 62
     7
 10
180
 20
10.26524353027344
 40
2.339999198913572
 50
194.9254199880039
 51
345.0744964558643
  0
ARC
  8
0
  6
CONTINUOUS
 62
     7
 10
21.46533203125
 20
9.899993896484375
 40
2
 50
269.9995808539825
 51
344.9998868844657
  0
ARC
  8
0
  6
CONTINUOUS
 62
     7
 10
28.2763671875
 20
16
 40
3
 50
90.00000250447812
 51
164.9999943462596
  0
CIRCLE
  8
0
  6
CONTINUOUS
 62
     7
 10
179.9999389648438
 20
93
 40
2.75
  0
ARC
  8
0
  6
CONTINUOUS
 62
     7
 10
11.05483436584473
 20
7.899993896484375
 40
0.9499999284744271
 50
179.9996908202545
 51
269.9999733624886
  0
POLYLINE
  8
0
  6
CONTINUOUS
 62
     7
 66
     1
 10
0
 20
0
  0
VERTEX
  8
0
  6
CONTINUOUS
 62
     7
 10
6.820068359375
 20
24.8499755859375
 42
0.1885789354394468
  0
VERTEX
  8
0
  6
CONTINUOUS
 62
     7
 10
6.460340646671255
 20
24.69028472367525
 42
0.07574244361860745
  0
VERTEX
  8
0
  6
CONTINUOUS
 62
     7
 10
6.216109078558669
 20
24.37244727503471
 42
0.03933441130898555
  0
VERTEX
  8
0
  6
CONTINUOUS
 62
     7
 10
6.046247817523368
 20
24.0071146554796
 42
0.0257702261281544
  0
VERTEX
  8
0
  6
CONTINUOUS
 62
     7
 10
5.924091743984418
 20
23.6229656167918
 42
0.01950444828012556
  0
VERTEX
  8
0
  6
CONTINUOUS
 62
     7
 10
5.836597916854423
 20
23.22875562410386
 42
0.01621398503865195
  0
VERTEX
  8
0
  6
CONTINUOUS
 62
     7
 10
5.777233499820522
 20
22.82916637026607
 42
0.01446599208440805
  0
VERTEX
  8
0
  6
CONTINUOUS
 62
     7
 10
5.742360581290934
 20
22.42664322193476
 42
0.01369076240761477
  0
VERTEX
  8
0
  6
CONTINUOUS
 62
     7
 10
5.730106323576757
 20
22.02250032437938
 42
0.01360566335298707
  0
VERTEX
  8
0
  6
CONTINUOUS
 62
     7
 10
5.73982436726772
 20
21.61965627271868
 42
0.01431483577561537
  0
VERTEX
  8
0
  6
CONTINUOUS
 62
     7
 10
5.771975711061604
 20
21.21740613366577
 42
0.01598134685394616
  0
VERTEX
  8
0
  6
CONTINUOUS
 62
     7
 10
5.828487562983152
 20
20.8165893837605
 42
0.01902611244822086
  0
VERTEX
  8
0
  6
CONTINUOUS
 62
     7
 10
5.912549178179487
 20
20.42143711227581
 42
0.02487889210572565
  0
VERTEX
  8
0
  6
CONTINUOUS
 62
     7
 10
6.03056358886492
 20
20.03504180708984
 42
0.03729480303986422
  0
VERTEX
  8
0
  6
CONTINUOUS
 62
     7
 10
6.194635633313293
 20
19.66585824574866
 42
0.06998072190960362
  0
VERTEX
  8
0
  6
CONTINUOUS
 62
     7
 10
6.430216112886583
 20
19.33852528513459
 42
0.1738226602511774
  0
VERTEX
  8
0
  6
CONTINUOUS
 62
     7
 10
6.779979201797491
 20
19.15192197053593
 42
0
  0
SEQEND
  8
0
  0
POLYLINE
  8
0
  6
CONTINUOUS
 62
     7
 66
     1
 10
0
 20
0
 70
     1
  0
VERTEX
  8
0
  6
CONTINUOUS
 62
     7
 10
10.52001953125
 20
24.5
 42
0.2551605281481423
  0
VERTEX
  8
0
  6
CONTINUOUS
 62
     7
 10
9.990202750479739
 20
24.07511834744248
 42
0.06319271445580761
  0
VERTEX
  8
0
  6
CONTINUOUS
 62
     7
 10
9.736102618308747
 20
23.41223209505605
 42
0.03518703029839194
  0
VERTEX
  8
0
  6
CONTINUOUS
 62
     7
 10
9.609370472692845
 20
22.7121812488475
 42
0.02798589179772874
  0
VERTEX
  8
0
  6
CONTINUOUS
 62
     7
 10
9.57000732421875
 20
22
 42
0.02790009419002959
  0
VERTEX
  8
0
  6
CONTINUOUS
 62
     7
 10
9.609141740132959
 20
21.28985099016532
 42
0.03516093888087672
  0
VERTEX
  8
0
  6
CONTINUOUS
 62
     7
 10
9.735638526659862
 20
20.5895594726779
 42
0.06315679289242825
  0
VERTEX
  8
0
  6
CONTINUOUS
 62
     7
 10
9.98967590271929
 20
19.92581974598598
 42
0.2552812160363974
  0
VERTEX
  8
0
  6
CONTINUOUS
 62
     7
 10
10.52001953125
 20
19.5
 42
0.2551559578744377
  0
VERTEX
  8
0
  6
CONTINUOUS
 62
     7
 10
11.04983493541096
 20
19.92488519003005
 42
0.06319253877387372
  0
VERTEX
  8
0
  6
CONTINUOUS
 62
     7
 10
11.30393573583335
 20
20.58777121513414
 42
0.03518717651549724
  0
VERTEX
  8
0
  6
CONTINUOUS
 62
     7
 10
11.43066852454271
 20
21.28782195034705
 42
0.02798603583735517
  0
VERTEX
  8
0
  6
CONTINUOUS
 62
     7
 10
11.47003173828125
 20
22
 42
0.02789900851435107
  0
VERTEX
  8
0
  6
CONTINUOUS
 62
     7
 10
11.43089016769574
 20
22.71014864099245
 42
0.03515957623319515
  0
VERTEX
  8
0
  6
CONTINUOUS
 62
     7
 10
11.30438968761925
 20
23.41043954460519
 42
0.06315466501143441
  0
VERTEX
  8
0
  6
CONTINUOUS
 62
     7
 10
11.05035327340711
 20
24.0741798129032
 42
0.2552827079446852
  0
SEQEND
  8
0
  0
POLYLINE
  8
0
  6
CONTINUOUS
 62
     7
 66
     1
 10
0
 20
0
 70
     1
  0
VERTEX
  8
0
  6
CONTINUOUS
 62
     7
 10
148.699951171875
 20
24.50009155273438
 42
0.1103785476717084
  0
VERTEX
  8
0
  6
CONTINUOUS
 62
     7
 10
147.7877970741258
 20
24.2950742034744
 42
0.102505556742424
  0
VERTEX
  8
0
  6
CONTINUOUS
 62
     7
 10
147.0404658750024
 20
23.73106667601726
 42
0.09328871158662629
  0
VERTEX
  8
0
  6
CONTINUOUS
 62
     7
 10
146.5628600553918
 20
22.92417779070723
 42
0.08782030193820396
  0
VERTEX
  8
0
  6
CONTINUOUS
 62
     7
 10
146.3999633789063
 20
22.00007629394531
 42
0.08777189560533059
  0
VERTEX
  8
0
  6
CONTINUOUS
 62
     7
 10
146.5626834883735
 20
21.07645954236113
 42
0.09326090936454645
  0
VERTEX
  8
0
  6
CONTINUOUS
 62
     7
 10
147.0399734797451
 20
20.26965230805819
 42
0.1026322129760163
  0
VERTEX
  8
0
  6
CONTINUOUS
 62
     7
 10
147.7881753728122
 20
19.70491920085033
 42
0.1103323247531234
  0
VERTEX
  8
0
  6
CONTINUOUS
 62
     7
 10
148.699951171875
 20
19.50009155273438
 42
0.1103806065794869
  0
VERTEX
  8
0
  6
CONTINUOUS
 62
     7
 10
149.6121068990063
 20
19.70510008514389
 42
0.1025073495127945
  0
VERTEX
  8
0
  6
CONTINUOUS
 62
     7
 10
150.3594387137911
 20
20.26910638258571
 42
0.09328891142575203
  0
VERTEX
  8
0
  6
CONTINUOUS
 62
     7
 10
150.8370423650385
 20
21.07599644556625
 42
0.08781967708548405
  0
VERTEX
  8
0
  6
CONTINUOUS
 62
     7
 10
150.9999389648438
 20
22.00010681152344
 42
0.08777261078519569
  0
VERTEX
  8
0
  6
CONTINUOUS
 62
     7
 10
150.8372173633223
 20
22.92372317602963
 42
0.09326084649266167
  0
VERTEX
  8
0
  6
CONTINUOUS
 62
     7
 10
150.3599249850778
 20
23.73052897055606
 42
0.1026313650490649
  0
VERTEX
  8
0
  6
CONTINUOUS
 62
     7
 10
149.6117223918247
 20
24.29526129479
 42
0.1103308093453988
  0
SEQEND
  8
0
  0
POLYLINE
  8
0
  6
CONTINUOUS
 62
     7
 66
     1
 10
0
 20
0
  0
VERTEX
  8
0
  6
CONTINUOUS
 62
     7
 10
149.800048828125
 20
25.25009155273438
 42
0.01434915630870002
  0
VERTEX
  8
0
  6
CONTINUOUS
 62
     7
 10
149.6411678353358
 20
25.24552977116916
 42
0.01426049029402106
  0
VERTEX
  8
0
  6
CONTINUOUS
 62
     7
 10
149.4835568628333
 20
25.23195368641033
 42
0.01417559997328494
  0
VERTEX
  8
0
  6
CONTINUOUS
 62
     7
 10
149.327457901806
 20
25.20951033668721
 42
0.01415078432061035
  0
VERTEX
  8
0
  6
CONTINUOUS
 62
     7
 10
149.1724958607122
 20
25.17818644403166
 42
0.01410149026487763
  0
VERTEX
  8
0
  6
CONTINUOUS
 62
     7
 10
149.0192340047077
 20
25.13807829642745
 42
0.01402948227996749
  0
VERTEX
  8
0
  6
CONTINUOUS
 62
     7
 10
148.8682173143447
 20
25.08933372005383
 42
0.01393689961179117
  0
VERTEX
  8
0
  6
CONTINUOUS
 62
     7
 10
148.7199670061811
 20
25.03214786592492
 42
0.01382617919442275
  0
VERTEX
  8
0
  6
CONTINUOUS
 62
     7
 10
148.5749759132851
 20
24.96675821962559
 42
0.01369997094987233
  0
VERTEX
  8
0
  6
CONTINUOUS
 62
     7
 10
148.4337048429438
 20
24.89343905167476
 42
0.01356105117706884
  0
VERTEX
  8
0
  6
CONTINUOUS
 62
     7
 10
148.2965799755129
 20
24.81249554272303
 42
0.01332231952322011
  0
VERTEX
  8
0
  6
CONTINUOUS
 62
     7
 10
148.1648697897185
 20
24.72487676514728
 42
0.01328775384340076
  0
VERTEX
  8
0
  6
CONTINUOUS
 62
     7
 10
148.036848703292
 20
24.62951322530753
 42
0.01315481199869794
  0
VERTEX
  8
0
  6
CONTINUOUS
 62
     7
 10
147.9137963264155
 20
24.52730757216213
 42
0.01293826889742165
  0
VERTEX
  8
0
  6
CONTINUOUS
 62
     7
 10
147.7967520613029
 20
24.41929305875482
 42
0.01278028624477875
  0
VERTEX
  8
0
  6
CONTINUOUS
 62
     7
 10
147.6854156340702
 20
24.30540392736336
 42
0.01262528523756644
  0
VERTEX
  8
0
  6
CONTINUOUS
 62
     7
 10
147.5800061663628
 20
24.18600674162688
 42
0
  0
SEQEND
  8
0
  0
POLYLINE
  8
0
  6
CONTINUOUS
 62
     7
 66
     1
 10
0
 20
0
  0
VERTEX
  8
0
  6
CONTINUOUS
 62
     7
 10
147.5759806841149
 20
19.81897147075329
 42
0.06283239169725728
  0
VERTEX
  8
0
  6
CONTINUOUS
 62
     7
 10
148.1402799078084
 20
19.29279961834311
 42
0.06649755648820309
  0
VERTEX
  8
0
  6
CONTINUOUS
 62
     7
 10
148.8202812600781
 20
18.92829663139672
 42
0.06915606624124282
  0
VERTEX
  8
0
  6
CONTINUOUS
 62
     7
 10
149.5726367765116
 20
18.75944154658357
 42
0.06975032428205288
  0
VERTEX
  8
0
  6
CONTINUOUS
 62
     7
 10
150.3413919732763
 20
18.80343917469305
 42
0.06816399568914397
  0
VERTEX
  8
0
  6
CONTINUOUS
 62
     7
 10
151.0692358373926
 20
19.05525966396404
 42
0.06499630438236027
  0
VERTEX
  8
0
  6
CONTINUOUS
 62
     7
 10
151.7058014539494
 20
19.49009135263799
 42
0.06129109851734661
  0
VERTEX
  8
0
  6
CONTINUOUS
 62
     7
 10
152.213858069519
 20
20.07019325182144
 42
0.0580795562049647
  0
VERTEX
  8
0
  6
CONTINUOUS
 62
     7
 10
152.5708539027112
 20
20.75418799151936
 42
0.05590509360162785
  0
VERTEX
  8
0
  6
CONTINUOUS
 62
     7
 10
152.7645116733011
 20
21.50133229985415
 42
0.05496341954673465
  0
VERTEX
  8
0
  6
CONTINUOUS
 62
     7
 10
152.7895266040952
 20
22.27205492945235
 42
0.05547382898792154
  0
VERTEX
  8
0
  6
CONTINUOUS
 62
     7
 10
152.6454479842896
 20
23.02994440136203
 42
0.05728038304194727
  0
VERTEX
  8
0
  6
CONTINUOUS
 62
     7
 10
152.3360387949653
 20
23.73638640194766
 42
0.06026828388553528
  0
VERTEX
  8
0
  6
CONTINUOUS
 62
     7
 10
151.8708002160691
 20
24.3516958797228
 42
0.0639524511344559
  0
VERTEX
  8
0
  6
CONTINUOUS
 62
     7
 10
151.2685940118113
 20
24.83407487540421
 42
0.06744497101933848
  0
VERTEX
  8
0
  6
CONTINUOUS
 62
     7
 10
150.5619367639445
 20
25.14353717091809
 42
0.06944158250089445
  0
VERTEX
  8
0
  6
CONTINUOUS
 62
     7
 10
149.800048828125
 20
25.25009155273438
 42
0
  0
SEQEND
  8
0
  0
TEXT
  8
0
  6
CONTINUOUS
 62
     7
 10
-11.28550004959106
 20
-31.79999995231628
 40
3.599999904632568
 41
0.8455426207593617
  1
ＳＲ２０Ｍ１ＳＢ
  0
ENDSEC
  0
EOF
