  0
SECTION
  2
HEADER
  0
ENDSEC
  0
SECTION
  2
TABLES
  0
TABLE
  2
LTYPE
 70
    22
  0
LTYPE
  2
CONTINUOUS
 70
    64
  3
Solid line
 72
    65
 73
     0
 40
0.000000
  0
LTYPE
  2
DASHED
 70
    64
  3
__ __ __ __ __ __ __ __ __ __ __ __ __ __ __
 72
    65
 73
     2
 40
3.500000
 49
2.000000
 49
-1.500000
  0
LTYPE
  2
CENTER
 70
    64
  3
____ _ ____ _ ____ _ ____ _ ____ _ ____ _ ____
 72
    65
 73
     4
 40
17.500000
 49
13.000000
 49
-1.500000
 49
1.500000
 49
-1.500000
  0
LTYPE
  2
PHANTOM
 70
    64
  3
_____ _ _ _____ _ _ _____ _ _ _____ _ _ ____  
 72
    65
 73
     6
 40
15.500000
 49
8.000000
 49
-1.500000
 49
1.500000
 49
-1.500000
 49
1.500000
 49
-1.500000
  0
LTYPE
  2
DOT
 70
    64
  3
. . . . . . . . . . . . . . . . . . . . . . . .
 72
    65
 73
     2
 40
0.25
 49
0.0
 49
-0.25
  0
ENDTAB
  0
TABLE
  2
LAYER
 70
     1
  0
LAYER
  2
0
 70
     0
 62
     7
  6
CONTINUOUS
  0
ENDTAB
  0
TABLE
  2
STYLE
 70
     1
  0
STYLE
  2
STANDARD
 70
     0
 40
0.000000
 41
1.000000
 50
0.000000
 71
     0
 42
0.200000
  3
txt
  4
BIGFONT
  0
ENDTAB
  0
TABLE
  2
VIEW
 70
     0
  0
ENDTAB
  0
ENDSEC
  0
SECTION
  2
BLOCKS
  0
ENDSEC
  0
SECTION
  2
ENTITIES
  0
LINE
  8
0
  6
CONTINUOUS
 62
     7
 10
21
 20
26.79997253417969
 11
21
 21
20.49993896484375
  0
LINE
  8
0
  6
CONTINUOUS
 62
     7
 10
-6.999755859375
 20
27.54998779296875
 11
7
 21
27.54998779296875
  0
LINE
  8
0
  6
CONTINUOUS
 62
     7
 10
20.7001953125
 20
20.199951171875
 11
20.7001953125
 21
8.899993896484375
  0
LINE
  8
0
  6
CONTINUOUS
 62
     7
 10
7.450615882873535
 20
27.99940299987793
 11
7.000614643096924
 21
27.54940223693848
  0
LINE
  8
0
  6
CONTINUOUS
 62
     7
 10
19.80039596557617
 20
28.00006103515625
 11
21.0003604888916
 21
26.80007553100586
  0
LINE
  8
0
  6
CONTINUOUS
 62
     7
 10
20.70044136047363
 20
20.19948577880859
 11
21.00044631958008
 21
20.49949073791504
  0
LINE
  8
0
  6
CONTINUOUS
 62
     7
 10
20.70041656494141
 20
8.899580001831055
 11
19.70041465759277
 21
7.899579048156738
  0
LINE
  8
0
  6
CONTINUOUS
 62
     7
 10
8.820068359375
 20
0
 11
3.10009765625
 21
0
  0
LINE
  8
0
  6
CONTINUOUS
 62
     7
 10
-10
 20
14.53999328613281
 11
-10
 21
13.37950134277344
  0
LINE
  8
0
  6
CONTINUOUS
 62
     7
 10
10
 20
14.53999328613281
 11
10
 21
12.99019622802734
  0
LINE
  8
0
  6
CONTINUOUS
 62
     7
 10
-9.039794921875
 20
15.5
 11
-8.797119140625
 21
15.5
  0
LINE
  8
0
  6
CONTINUOUS
 62
     7
 10
-6.839708805084229
 20
7.90634298324585
 11
-9.017693519592285
 21
11.67872619628906
  0
LINE
  8
0
  6
CONTINUOUS
 62
     7
 10
-7.096071243286133
 20
6.949710369110107
 11
-9.999852180480957
 21
5.273212909698486
  0
LINE
  8
0
  6
CONTINUOUS
 62
     7
 10
6.84079647064209
 20
7.905784606933594
 11
9.018782615661621
 21
11.67816734313965
  0
LINE
  8
0
  6
CONTINUOUS
 62
     7
 10
7.096458435058594
 20
6.949949264526367
 11
10.00026607513428
 21
5.273435592651367
  0
LINE
  8
0
  6
CONTINUOUS
 62
     7
 10
-9.039872169494629
 20
15.49982929229736
 11
-9.999866485595703
 21
14.53983688354492
  0
LINE
  8
0
  6
CONTINUOUS
 62
     7
 10
9.040242195129395
 20
15.49987316131592
 11
10.00025749206543
 21
14.53985786437988
  0
LINE
  8
0
  6
CONTINUOUS
 62
     7
 10
-8.819723129272461
 20
-0.0001255589013453573
 11
-9.999844551086426
 21
1.179997324943543
  0
LINE
  8
0
  6
CONTINUOUS
 62
     7
 10
8.820536613464356
 20
-0.0005639291484840214
 11
10.0005407333374
 21
1.179439663887024
  0
LINE
  8
0
  6
CONTINUOUS
 62
     7
 10
-2.5
 20
0.5999908447265625
 11
2.5
 21
0.5999908447265625
  0
LINE
  8
0
  6
CONTINUOUS
 62
     7
 10
-3.099487543106079
 20
-0.0005235609714873135
 11
-2.499488830566406
 21
0.5994748473167419
  0
LINE
  8
0
  6
CONTINUOUS
 62
     7
 10
2.500386953353882
 20
0.6001423001289368
 11
3.100417852401733
 21
0.0001111959063564427
  0
LINE
  8
0
  6
CONTINUOUS
 62
     7
 10
-9.660988807678223
 20
12.79294681549072
 11
-9.999702453613281
 21
13.37961673736572
  0
LINE
  8
0
  6
CONTINUOUS
 62
     7
 10
-6.502685546875
 20
15.5
 11
6.5029296875
 21
15.5
  0
LINE
  8
0
  6
CONTINUOUS
 62
     7
 10
8.79736328125
 20
15.5
 11
9.0400390625
 21
15.5
  0
LINE
  8
0
  6
CONTINUOUS
 62
     7
 10
-10
 20
5.27349853515625
 11
-10
 21
1.17999267578125
  0
LINE
  8
0
  6
CONTINUOUS
 62
     7
 10
10
 20
5.27349853515625
 11
10
 21
1.17999267578125
  0
LINE
  8
0
  6
CONTINUOUS
 62
     7
 10
-3.098963975906372
 20
0
 11
-8.81982421875
 21
0
  0
LINE
  8
0
  6
DASHED
 62
     7
 10
-4.75
 20
15.5
 11
-4.75
 21
7
  0
LINE
  8
0
  6
DASHED
 62
     7
 10
4.75
 20
15.5
 11
4.75
 21
7
  0
LINE
  8
0
  6
DASHED
 62
     7
 10
-3
 20
7
 11
-3
 21
0.09896398335695267
  0
LINE
  8
0
  6
DASHED
 62
     7
 10
3
 20
7
 11
3
 21
0.1005291864275932
  0
LINE
  8
0
  6
DASHED
 62
     7
 10
-4.75
 20
7
 11
4.75
 21
7
  0
LINE
  8
0
  6
CONTINUOUS
 62
     7
 10
-19.30033111572266
 20
27.29998779296875
 11
19.300048828125
 21
27.29998779296875
  0
LINE
  8
0
  6
CONTINUOUS
 62
     7
 10
20.050048828125
 20
25.79997253417969
 11
20.050048828125
 21
9.399993896484375
  0
LINE
  8
0
  6
CONTINUOUS
 62
     7
 10
18.55009269714356
 20
27.29988479614258
 11
20.05010223388672
 21
25.79987144470215
  0
LINE
  8
0
  6
CONTINUOUS
 62
     7
 10
20.05051612854004
 20
9.399471282958984
 11
18.55050277709961
 21
7.899459362030029
  0
LINE
  8
0
  6
CONTINUOUS
 62
     7
 10
1.426047563552856
 20
18.19999694824219
 11
6.824462890625
 21
18.19999694824219
  0
LINE
  8
0
  6
CONTINUOUS
 62
     7
 10
7.64013671875
 20
7.899993896484375
 11
19.7001953125
 21
7.899993896484375
  0
LINE
  8
0
  6
CONTINUOUS
 62
     7
 10
8.8134765625
 20
15.5
 11
9
 21
15.5
  0
LINE
  8
0
  6
CONTINUOUS
 62
     7
 10
7.470538139343262
 20
7.99789571762085
 11
7.640106678009033
 21
7.89999532699585
  0
LINE
  8
0
  6
CONTINUOUS
 62
     7
 10
8.475830078125
 20
18.19999694824219
 11
10.118408203125
 21
18.19999694824219
  0
LINE
  8
0
  6
CONTINUOUS
 62
     7
 10
12.300048828125
 20
16.01845359802246
 11
10.11851692199707
 21
18.19998741149902
  0
LINE
  8
0
  6
CONTINUOUS
 62
     7
 10
12.300048828125
 20
12.97135925292969
 11
12.300048828125
 21
16.01845359802246
  0
LINE
  8
0
  6
CONTINUOUS
 62
     7
 10
12.30052089691162
 20
12.97115898132324
 11
10.78955745697022
 21
10.35409259796143
  0
LINE
  8
0
  6
CONTINUOUS
 62
     7
 10
11.15514183044434
 20
8.988216400146484
 11
13.04005813598633
 21
7.899960517883301
  0
LINE
  8
0
  6
CONTINUOUS
 62
     7
 10
20.300048828125
 20
26.29997253417969
 11
20.300048828125
 21
9.29998779296875
  0
LINE
  8
0
  6
CONTINUOUS
 62
     7
 10
18.9501953125
 20
8.29998779296875
 11
19.300048828125
 21
8.29998779296875
  0
LINE
  8
0
  6
CONTINUOUS
 62
     7
 10
19.30025482177734
 20
27.3000659942627
 11
20.30031585693359
 21
26.29999351501465
  0
LINE
  8
0
  6
CONTINUOUS
 62
     7
 10
20.30006790161133
 20
9.299935340881348
 11
19.3000659942627
 21
8.299934387207031
  0
LINE
  8
0
  6
CONTINUOUS
 62
     7
 10
7.4501953125
 20
28
 11
19.800048828125
 21
28
  0
LINE
  8
0
  6
CENTER
 62
     7
 10
-6.369873046875
 20
22
 11
13.31005859375
 21
22
  0
LINE
  8
0
  6
CONTINUOUS
 62
     7
 10
1.780029296875
 20
25.5
 11
5.860107421875
 21
25.5
  0
LINE
  8
0
  6
CONTINUOUS
 62
     7
 10
1.780029296875
 20
18.5
 11
5.860107421875
 21
18.5
  0
LINE
  8
0
  6
CONTINUOUS
 62
     7
 10
1.130281090736389
 20
22.0000057220459
 11
1.780274868011475
 21
18.5000057220459
  0
LINE
  8
0
  6
CONTINUOUS
 62
     7
 10
1.130374550819397
 20
21.99990844726563
 11
1.793964624404907
 21
25.5731201171875
  0
LINE
  8
0
  6
CONTINUOUS
 62
     7
 10
3.440481901168823
 20
22.00002098083496
 11
4.090490341186523
 21
18.50002288818359
  0
LINE
  8
0
  6
CONTINUOUS
 62
     7
 10
3.440593004226685
 20
21.99986267089844
 11
4.090601444244385
 21
25.49986076354981
  0
LINE
  8
0
  6
CONTINUOUS
 62
     7
 10
5.950665473937988
 20
18.96984672546387
 11
5.860652923583984
 21
18.49983978271484
  0
LINE
  8
0
  6
CONTINUOUS
 62
     7
 10
5.950966835021973
 20
25.02015686035156
 11
5.8609619140625
 21
25.5001335144043
  0
LINE
  8
0
  6
CONTINUOUS
 62
     7
 10
7.766204357147217
 20
18.75422859191895
 11
10.52007484436035
 21
19.49986076354981
  0
LINE
  8
0
  6
CONTINUOUS
 62
     7
 10
7.750245571136475
 20
25.24988555908203
 11
10.52037620544434
 21
24.49985122680664
  0
LINE
  8
0
  6
CONTINUOUS
 62
     7
 10
0.002546134870499373
 20
17.38188171386719
 11
1.94785749912262
 21
18.49989128112793
  0
LINE
  8
0
  6
CONTINUOUS
 62
     7
 10
0.006673026829957962
 20
26.61515045166016
 11
1.938104271888733
 21
25.50003814697266
  0
LINE
  8
0
  6
CENTER
 62
     7
 10
16
 20
13.59744262695313
 11
16
 21
29
  0
LINE
  8
0
  6
CENTER
 62
     7
 10
0
 20
29
 11
0
 21
-1
  0
LINE
  8
0
  6
CONTINUOUS
 62
     7
 10
-21
 20
20.5
 11
-21
 21
26.79997253417969
  0
LINE
  8
0
  6
CONTINUOUS
 62
     7
 10
-6.999561309814453
 20
27.55006790161133
 11
-7.449616432189941
 21
28.0001220703125
  0
LINE
  8
0
  6
CONTINUOUS
 62
     7
 10
-20.99942779541016
 20
26.79940223693848
 11
-19.79942893981934
 21
27.99941825866699
  0
LINE
  8
0
  6
CONTINUOUS
 62
     7
 10
-19.69957733154297
 20
7.90013599395752
 11
-20.69964408874512
 21
8.900201797485352
  0
LINE
  8
0
  6
CONTINUOUS
 62
     7
 10
-20.0498046875
 20
9.399993896484375
 11
-20.0498046875
 21
25.80016708374023
  0
LINE
  8
0
  6
CONTINUOUS
 62
     7
 10
-18.54947090148926
 20
7.900132179260254
 11
-20.04948425292969
 21
9.400144577026367
  0
LINE
  8
0
  6
CONTINUOUS
 62
     7
 10
-6.82421875
 20
18.19999694824219
 11
-1.414054155349731
 21
18.19999694824219
  0
LINE
  8
0
  6
CONTINUOUS
 62
     7
 10
-19.699951171875
 20
7.899993896484375
 11
-7.639892578125
 21
7.899993896484375
  0
LINE
  8
0
  6
CONTINUOUS
 62
     7
 10
-7.639880657196045
 20
7.899831771850586
 11
-7.470206260681152
 21
7.997793197631836
  0
LINE
  8
0
  6
CONTINUOUS
 62
     7
 10
-10.1181640625
 20
18.19999694824219
 11
-8.4755859375
 21
18.19999694824219
  0
LINE
  8
0
  6
CONTINUOUS
 62
     7
 10
-10.11810111999512
 20
18.1998233795166
 11
-12.2998046875
 21
16.01811790466309
  0
LINE
  8
0
  6
CONTINUOUS
 62
     7
 10
-12.2998046875
 20
16.01811790466309
 11
-12.2998046875
 21
12.97135925292969
  0
LINE
  8
0
  6
CONTINUOUS
 62
     7
 10
-10.78884887695313
 20
10.35439682006836
 11
-12.29981231689453
 21
12.97146320343018
  0
LINE
  8
0
  6
CONTINUOUS
 62
     7
 10
-13.03988933563232
 20
7.899896621704102
 11
-11.15494632720947
 21
8.988167762756348
  0
LINE
  8
0
  6
CONTINUOUS
 62
     7
 10
-20.2998046875
 20
9.29998779296875
 11
-20.2998046875
 21
26.30050277709961
  0
LINE
  8
0
  6
CONTINUOUS
 62
     7
 10
-19.2998046875
 20
8.29998779296875
 11
-18.949951171875
 21
8.29998779296875
  0
LINE
  8
0
  6
CONTINUOUS
 62
     7
 10
-19.29972457885742
 20
8.299911499023438
 11
-20.29979133605957
 21
9.29997730255127
  0
LINE
  8
0
  6
CONTINUOUS
 62
     7
 10
-17.704833984375
 20
6.949984073638916
 11
-11.05483436584473
 21
6.949984073638916
  0
LINE
  8
0
  6
CONTINUOUS
 62
     7
 10
-17.704833984375
 20
6.949984073638916
 11
-17.704833984375
 21
7.899993896484375
  0
LINE
  8
0
  6
CONTINUOUS
 62
     7
 10
-19.7988452911377
 20
28
 11
-7.449951171875
 21
28
  0
LINE
  8
0
  6
CENTER
 62
     7
 10
-16
 20
29
 11
-16
 21
13.59744262695313
  0
LINE
  8
0
  6
DASHED
 62
     7
 10
-13.5
 20
28
 11
-13.5
 21
20
  0
LINE
  8
0
  6
DASHED
 62
     7
 10
-18.5
 20
28
 11
-18.5
 21
20
  0
LINE
  8
0
  6
DASHED
 62
     7
 10
-18.14999961853027
 20
16
 11
-13.85000038146973
 21
16
  0
LINE
  8
0
  6
DASHED
 62
     7
 10
-13.84999942779541
 20
19.39327621459961
 11
-13.4998083114624
 21
19.99982643127441
  0
LINE
  8
0
  6
DASHED
 62
     7
 10
-18.49986457824707
 20
20
 11
-18.14999961853027
 21
19.39401817321777
  0
LINE
  8
0
  6
CONTINUOUS
 62
     7
 10
-3.997874021530151
 20
19.6917667388916
 11
0.002630653325468302
 21
17.3820743560791
  0
LINE
  8
0
  6
CONTINUOUS
 62
     7
 10
-3.997957468032837
 20
24.31345558166504
 11
0.006585025694221258
 21
26.61494636535645
  0
LINE
  8
0
  6
CONTINUOUS
 62
     7
 10
-3.998046875
 20
19.69168090820313
 11
-3.998046875
 21
24.31356811523438
  0
LINE
  8
0
  6
CONTINUOUS
 62
     7
 10
-20.699951171875
 20
8.899993896484375
 11
-20.699951171875
 21
20.199951171875
  0
LINE
  8
0
  6
CONTINUOUS
 62
     7
 10
-11.53114891052246
 20
6
 11
-9.800832748413086
 21
6
  0
LINE
  8
0
  6
CONTINUOUS
 62
     7
 10
-9.80023193359375
 20
5.999597549438477
 11
-8.702751159667969
 21
7.899993896484375
  0
LINE
  8
0
  6
CONTINUOUS
 62
     7
 10
-11.53114891052246
 20
6.949984073638916
 11
-11.53114891052246
 21
6
  0
LINE
  8
0
  6
CONTINUOUS
 62
     7
 10
70
 20
0
 11
290
 21
0
  0
LINE
  8
0
  6
CONTINUOUS
 62
     7
 10
70
 20
15.5
 11
146.75
 21
15.5
  0
LINE
  8
0
  6
CONTINUOUS
 62
     7
 10
156.6500549316406
 20
7.900009155273438
 11
203.3499450683594
 21
7.900009155273438
  0
LINE
  8
0
  6
CONTINUOUS
 62
     7
 10
156.6500549316406
 20
20.5
 11
203.3499450683594
 21
20.5
  0
LINE
  8
0
  6
CONTINUOUS
 62
     7
 10
157.6500549316406
 20
28
 11
202.3499145507813
 21
28
  0
LINE
  8
0
  6
CONTINUOUS
 62
     7
 10
156.6500549316406
 20
27.29998779296875
 11
156.6500549316406
 21
7.900009155273438
  0
LINE
  8
0
  6
CONTINUOUS
 62
     7
 10
203.3499450683594
 20
27.29998779296875
 11
203.3499450683594
 21
7.900009155273438
  0
LINE
  8
0
  6
CONTINUOUS
 62
     7
 10
157.650634765625
 20
27.99932098388672
 11
156.6506500244141
 21
26.99934959411621
  0
LINE
  8
0
  6
CONTINUOUS
 62
     7
 10
203.3502197265625
 20
26.99971008300781
 11
202.3501434326172
 21
27.99977111816406
  0
LINE
  8
0
  6
CONTINUOUS
 62
     7
 10
149.75
 20
27.29998779296875
 11
149.75
 21
8.29998779296875
  0
LINE
  8
0
  6
CONTINUOUS
 62
     7
 10
210.25
 20
27.29998779296875
 11
210.25
 21
8.29998779296875
  0
LINE
  8
0
  6
CONTINUOUS
 62
     7
 10
149.75
 20
27.29998779296875
 11
156.6500549316406
 21
27.29998779296875
  0
LINE
  8
0
  6
CONTINUOUS
 62
     7
 10
149.75
 20
8.29998779296875
 11
156.6500549316406
 21
8.29998779296875
  0
LINE
  8
0
  6
CONTINUOUS
 62
     7
 10
203.3499450683594
 20
27.29998779296875
 11
210.25
 21
27.29998779296875
  0
LINE
  8
0
  6
CONTINUOUS
 62
     7
 10
203.3499450683594
 20
8.29998779296875
 11
210.25
 21
8.29998779296875
  0
LINE
  8
0
  6
CONTINUOUS
 62
     7
 10
149.75
 20
27.29998779296875
 11
149.75
 21
7.900009155273438
  0
LINE
  8
0
  6
CONTINUOUS
 62
     7
 10
148.75
 20
27.29998779296875
 11
148.75
 21
7.900009155273438
  0
LINE
  8
0
  6
CONTINUOUS
 62
     7
 10
146.75
 20
16.19999694824219
 11
146.75
 21
7.900009155273438
  0
LINE
  8
0
  6
CONTINUOUS
 62
     7
 10
148.75
 20
27.29998779296875
 11
149.75
 21
27.29998779296875
  0
LINE
  8
0
  6
CONTINUOUS
 62
     7
 10
146.75
 20
7.900009155273438
 11
149.75
 21
7.900009155273438
  0
LINE
  8
0
  6
CONTINUOUS
 62
     7
 10
146.7505493164063
 20
16.1993408203125
 11
148.7505493164063
 21
18.19934463500977
  0
LINE
  8
0
  6
CONTINUOUS
 62
     7
 10
210.25
 20
7.899993896484375
 11
210.25
 21
27.29998779296875
  0
LINE
  8
0
  6
CENTER
 62
     7
 10
135.550048828125
 20
22
 11
151.478515625
 21
22
  0
LINE
  8
0
  6
CONTINUOUS
 62
     7
 10
146.75
 20
17.8800048828125
 11
146.75
 21
26.11997985839844
  0
LINE
  8
0
  6
CONTINUOUS
 62
     7
 10
143.75
 20
26
 11
146.75
 21
26
  0
LINE
  8
0
  6
CONTINUOUS
 62
     7
 10
148.75
 20
26.6199951171875
 11
147.25
 21
26.6199951171875
  0
LINE
  8
0
  6
CONTINUOUS
 62
     7
 10
147.9312133789063
 20
17.3800048828125
 11
147.25
 21
17.3800048828125
  0
LINE
  8
0
  6
CONTINUOUS
 62
     7
 10
148.75
 20
19.69000244140625
 11
146.75
 21
19.69000244140625
  0
LINE
  8
0
  6
CONTINUOUS
 62
     7
 10
147.25
 20
17.37990951538086
 11
146.7500610351563
 21
17.87985610961914
  0
LINE
  8
0
  6
CONTINUOUS
 62
     7
 10
146.7500762939453
 20
26.11982536315918
 11
147.2500610351563
 21
26.61981391906738
  0
LINE
  8
0
  6
CONTINUOUS
 62
     7
 10
144.85009765625
 20
18.5
 11
139.64990234375
 21
18.5
  0
LINE
  8
0
  6
CONTINUOUS
 62
     7
 10
144.85009765625
 20
18.45999145507813
 11
144.85009765625
 21
18.5
  0
LINE
  8
0
  6
CONTINUOUS
 62
     7
 10
146.3504486083984
 20
21.9998722076416
 11
144.8504486083984
 21
18.4998664855957
  0
LINE
  8
0
  6
CONTINUOUS
 62
     7
 10
145.4502563476563
 20
21.99986076354981
 11
143.8502502441406
 21
18.49987983703613
  0
LINE
  8
0
  6
CONTINUOUS
 62
     7
 10
139.6502838134766
 20
18.49953842163086
 11
139.2502593994141
 21
19.07956695556641
  0
LINE
  8
0
  6
CONTINUOUS
 62
     7
 10
139.6501159667969
 20
25.4997501373291
 11
139.2501220703125
 21
24.91974449157715
  0
LINE
  8
0
  6
CONTINUOUS
 62
     7
 10
144.85009765625
 20
25.5
 11
139.64990234375
 21
25.5
  0
LINE
  8
0
  6
CONTINUOUS
 62
     7
 10
145.4501190185547
 20
21.99982452392578
 11
143.8501129150391
 21
25.49983406066895
  0
LINE
  8
0
  6
CONTINUOUS
 62
     7
 10
146.3499755859375
 20
21.99986839294434
 11
144.8499755859375
 21
25.49984550476074
  0
LINE
  8
0
  6
CONTINUOUS
 62
     7
 10
143.75
 20
18
 11
146.75
 21
18
  0
LINE
  8
0
  6
CENTER
 62
     7
 10
164.0001525878906
 20
13.59744262695313
 11
164.0001525878906
 21
29
  0
LINE
  8
0
  6
CONTINUOUS
 62
     7
 10
149.75
 20
7.899993896484375
 11
210.25
 21
7.899993896484375
  0
LINE
  8
0
  6
CONTINUOUS
 62
     7
 10
149.75
 20
7.899993896484375
 11
149.75
 21
6
  0
LINE
  8
0
  6
CONTINUOUS
 62
     7
 10
210.25
 20
7.899993896484375
 11
210.25
 21
6
  0
LINE
  8
0
  6
CONTINUOUS
 62
     7
 10
211.2499694824219
 20
7.900009155273438
 11
211.2499694824219
 21
27.29998779296875
  0
LINE
  8
0
  6
CONTINUOUS
 62
     7
 10
213.2499694824219
 20
7.900009155273438
 11
213.2499694824219
 21
16.19999694824219
  0
LINE
  8
0
  6
CONTINUOUS
 62
     7
 10
210.2499694824219
 20
27.29998779296875
 11
211.2499694824219
 21
27.29998779296875
  0
LINE
  8
0
  6
CONTINUOUS
 62
     7
 10
210.2499694824219
 20
7.900009155273438
 11
213.2499694824219
 21
7.900009155273438
  0
LINE
  8
0
  6
CONTINUOUS
 62
     7
 10
211.2501983642578
 20
18.19982147216797
 11
213.2501525878906
 21
16.19986152648926
  0
LINE
  8
0
  6
DASHED
 62
     7
 10
-18.14999961853027
 20
28
 11
-18.14999961853027
 21
16
  0
LINE
  8
0
  6
DASHED
 62
     7
 10
-18.5
 20
20
 11
-13.5
 21
20
  0
LINE
  8
0
  6
DASHED
 62
     7
 10
-13.85000038146973
 20
28
 11
-13.85000038146973
 21
16
  0
LINE
  8
0
  6
DASHED
 62
     7
 10
-18.14999961853027
 20
16
 11
-15.99999904632568
 21
14.75869655609131
  0
LINE
  8
0
  6
DASHED
 62
     7
 10
-13.85000038146973
 20
16
 11
-16
 21
14.75869655609131
  0
LINE
  8
0
  6
CONTINUOUS
 62
     7
 10
-18.55009269714356
 20
27.29988479614258
 11
-20.05010223388672
 21
25.79987144470215
  0
LINE
  8
0
  6
CONTINUOUS
 62
     7
 10
-19.30025482177734
 20
27.3000659942627
 11
-20.30031585693359
 21
26.29999351501465
  0
LINE
  8
0
  6
CONTINUOUS
 62
     7
 10
148.75
 20
24.30999755859375
 11
146.75
 21
24.30999755859375
  0
LINE
  8
0
  6
CONTINUOUS
 62
     7
 10
70
 20
15.5
 11
70
 21
0
  0
LINE
  8
0
  6
DASHED
 62
     7
 10
166.5001525878906
 20
28
 11
166.5001525878906
 21
20
  0
LINE
  8
0
  6
DASHED
 62
     7
 10
161.5002899169922
 20
19.99999809265137
 11
161.8501586914063
 21
19.39401435852051
  0
LINE
  8
0
  6
DASHED
 62
     7
 10
166.1501617431641
 20
19.39328002929688
 11
166.5003509521484
 21
19.99982643127441
  0
LINE
  8
0
  6
DASHED
 62
     7
 10
161.8501586914063
 20
16
 11
166.1501617431641
 21
16
  0
LINE
  8
0
  6
DASHED
 62
     7
 10
161.5001525878906
 20
28
 11
161.5001525878906
 21
20
  0
LINE
  8
0
  6
DASHED
 62
     7
 10
161.8501586914063
 20
15.99999809265137
 11
164.0001525878906
 21
14.75869560241699
  0
LINE
  8
0
  6
DASHED
 62
     7
 10
166.1501617431641
 20
16
 11
164.0001678466797
 21
14.75869846343994
  0
LINE
  8
0
  6
DASHED
 62
     7
 10
166.1501617431641
 20
28
 11
166.1501617431641
 21
16
  0
LINE
  8
0
  6
DASHED
 62
     7
 10
161.8501586914063
 20
28
 11
161.8501586914063
 21
16
  0
LINE
  8
0
  6
DASHED
 62
     7
 10
161.5001525878906
 20
20
 11
166.5001525878906
 21
20
  0
LINE
  8
0
  6
CENTER
 62
     7
 10
195.9998474121094
 20
13.59744262695313
 11
195.9998474121094
 21
29
  0
LINE
  8
0
  6
CENTER
 62
     7
 10
90
 20
16.5
 11
90
 21
-1
  0
LINE
  8
0
  6
DASHED
 62
     7
 10
85.25
 20
15.5
 11
85.25
 21
7
  0
LINE
  8
0
  6
DASHED
 62
     7
 10
94.75
 20
15.5
 11
94.75
 21
7
  0
LINE
  8
0
  6
DASHED
 62
     7
 10
93
 20
7
 11
93
 21
0
  0
LINE
  8
0
  6
DASHED
 62
     7
 10
87
 20
7
 11
87
 21
0
  0
LINE
  8
0
  6
DASHED
 62
     7
 10
85.25
 20
7
 11
94.75
 21
7
  0
LINE
  8
0
  6
CONTINUOUS
 62
     7
 10
70
 20
12.99019622802734
 11
146.75
 21
12.99019622802734
  0
LINE
  8
0
  6
CONTINUOUS
 62
     7
 10
70
 20
11.67633628845215
 11
146.75
 21
11.67633628845215
  0
LINE
  8
0
  6
CONTINUOUS
 62
     7
 10
70
 20
5.273589134216309
 11
290
 21
5.273589134216309
  0
LINE
  8
0
  6
CONTINUOUS
 62
     7
 10
70
 20
14.540114402771
 11
146.75
 21
14.540114402771
  0
LINE
  8
0
  6
CENTER
 62
     7
 10
270
 20
16.5
 11
270
 21
-1
  0
LINE
  8
0
  6
CONTINUOUS
 62
     7
 10
290
 20
15.5
 11
290
 21
0
  0
LINE
  8
0
  6
CONTINUOUS
 62
     7
 10
290
 20
15.5
 11
213.25
 21
15.5
  0
LINE
  8
0
  6
CONTINUOUS
 62
     7
 10
290
 20
11.67633628845215
 11
213.25
 21
11.67633628845215
  0
LINE
  8
0
  6
CONTINUOUS
 62
     7
 10
290
 20
12.99019622802734
 11
213.25
 21
12.99019622802734
  0
LINE
  8
0
  6
CONTINUOUS
 62
     7
 10
290
 20
14.540114402771
 11
213.25
 21
14.540114402771
  0
LINE
  8
0
  6
CENTER
 62
     7
 10
210
 20
7.899993896484375
 11
210
 21
-1
  0
LINE
  8
0
  6
CENTER
 62
     7
 10
150
 20
7.899993896484375
 11
150
 21
-1
  0
LINE
  8
0
  6
CONTINUOUS
 62
     7
 10
-21
 20
20.5
 11
-20.699951171875
 21
20.199951171875
  0
LINE
  8
0
  6
CONTINUOUS
 62
     7
 10
149.75
 20
88.69999694824219
 11
156.6500549316406
 21
88.69999694824219
  0
LINE
  8
0
  6
CONTINUOUS
 62
     7
 10
148.75
 20
88.94999694824219
 11
149.75
 21
88.94999694824219
  0
LINE
  8
0
  6
CENTER
 62
     7
 10
164
 20
96.5
 11
164
 21
89.5
  0
LINE
  8
0
  6
CENTER
 62
     7
 10
160.5
 20
93
 11
167.5
 21
93
  0
LINE
  8
0
  6
CONTINUOUS
 62
     7
 10
70
 20
102.4969940185547
 11
138.5153350830078
 21
102.4969940185547
  0
LINE
  8
0
  6
CONTINUOUS
 62
     7
 10
70
 20
99
 11
139.3878479003906
 21
99
  0
LINE
  8
0
  6
CONTINUOUS
 62
     7
 10
146.7500152587891
 20
98.30000305175781
 11
148.7500152587891
 21
96.30000305175781
  0
LINE
  8
0
  6
CONTINUOUS
 62
     7
 10
70
 20
100.2027130126953
 11
138.2842712402344
 21
100.2027130126953
  0
LINE
  8
0
  6
CONTINUOUS
 62
     7
 10
70
 20
99.95988464355469
 11
138.2670135498047
 21
99.95988464355469
  0
LINE
  8
0
  6
CONTINUOUS
 62
     7
 10
156.6500549316406
 20
88
 11
156.6500549316406
 21
130
  0
LINE
  8
0
  6
CONTINUOUS
 62
     7
 10
70
 20
118.0401153564453
 11
146.75
 21
118.0401153564453
  0
LINE
  8
0
  6
CONTINUOUS
 62
     7
 10
146.75
 20
98.30000305175781
 11
146.75
 21
103.2085037231445
  0
LINE
  8
0
  6
CONTINUOUS
 62
     7
 10
70
 20
99
 11
70
 21
119
  0
LINE
  8
0
  6
CONTINUOUS
 62
     7
 10
70
 20
117.7972869873047
 11
146.75
 21
117.7972869873047
  0
LINE
  8
0
  6
CONTINUOUS
 62
     7
 10
146.75
 20
119.6999969482422
 11
148.7500152587891
 21
121.6999969482422
  0
LINE
  8
0
  6
CENTER
 62
     7
 10
160.5
 20
125
 11
167.5
 21
125
  0
LINE
  8
0
  6
CONTINUOUS
 62
     7
 10
70
 20
119
 11
146.75
 21
119
  0
LINE
  8
0
  6
CONTINUOUS
 62
     7
 10
149.75
 20
88.69999694824219
 11
149.75
 21
129.3000030517578
  0
LINE
  8
0
  6
CONTINUOUS
 62
     7
 10
148.75
 20
129.0500030517578
 11
149.75
 21
129.0500030517578
  0
LINE
  8
0
  6
CONTINUOUS
 62
     7
 10
70
 20
115.5030059814453
 11
146.75
 21
115.5030059814453
  0
LINE
  8
0
  6
CONTINUOUS
 62
     7
 10
149.75
 20
129.3000030517578
 11
156.6500549316406
 21
129.3000030517578
  0
LINE
  8
0
  6
CONTINUOUS
 62
     7
 10
148.75
 20
88.94999694824219
 11
148.75
 21
105
  0
LINE
  8
0
  6
CENTER
 62
     7
 10
164
 20
121.5
 11
164
 21
128.5
  0
LINE
  8
0
  6
CENTER
 62
     7
 10
90
 20
114.75
 11
90
 21
103.25
  0
LINE
  8
0
  6
CENTER
 62
     7
 10
150
 20
114.75
 11
150
 21
103.25
  0
LINE
  8
0
  6
CONTINUOUS
 62
     7
 10
290
 20
99.95988464355469
 11
213.25
 21
99.95988464355469
  0
LINE
  8
0
  6
CONTINUOUS
 62
     7
 10
203.3499450683594
 20
130
 11
156.6500549316406
 21
130
  0
LINE
  8
0
  6
CONTINUOUS
 62
     7
 10
211.25
 20
88.94999694824219
 11
211.25
 21
129.0500030517578
  0
LINE
  8
0
  6
CENTER
 62
     7
 10
196
 20
121.5
 11
196
 21
128.5
  0
LINE
  8
0
  6
CONTINUOUS
 62
     7
 10
210.25
 20
129.3000030517578
 11
203.3499450683594
 21
129.3000030517578
  0
LINE
  8
0
  6
CONTINUOUS
 62
     7
 10
290
 20
115.5030059814453
 11
213.25
 21
115.5030059814453
  0
LINE
  8
0
  6
CONTINUOUS
 62
     7
 10
203.3499450683594
 20
116.4512100219727
 11
156.6500549316406
 21
116.4512100219727
  0
LINE
  8
0
  6
CONTINUOUS
 62
     7
 10
290
 20
119
 11
213.25
 21
119
  0
LINE
  8
0
  6
CENTER
 62
     7
 10
199.5
 20
125
 11
192.5
 21
125
  0
LINE
  8
0
  6
CONTINUOUS
 62
     7
 10
211.25
 20
129.0500030517578
 11
210.25
 21
129.0500030517578
  0
LINE
  8
0
  6
CONTINUOUS
 62
     7
 10
210.25
 20
88.69999694824219
 11
210.25
 21
129.3000030517578
  0
LINE
  8
0
  6
CONTINUOUS
 62
     7
 10
290
 20
117.7972869873047
 11
213.25
 21
117.7972869873047
  0
LINE
  8
0
  6
CONTINUOUS
 62
     7
 10
203.3499450683594
 20
88
 11
203.3499450683594
 21
130
  0
LINE
  8
0
  6
CENTER
 62
     7
 10
210
 20
114.75
 11
210
 21
103.25
  0
LINE
  8
0
  6
CONTINUOUS
 62
     7
 10
213.2499847412109
 20
119.6999969482422
 11
211.2499847412109
 21
121.6999969482422
  0
LINE
  8
0
  6
CONTINUOUS
 62
     7
 10
213.25
 20
98.30000305175781
 11
213.25
 21
119.6999969482422
  0
LINE
  8
0
  6
CONTINUOUS
 62
     7
 10
290
 20
118.0401153564453
 11
213.25
 21
118.0401153564453
  0
LINE
  8
0
  6
CONTINUOUS
 62
     7
 10
290
 20
99
 11
290
 21
119
  0
LINE
  8
0
  6
CENTER
 62
     7
 10
291
 20
109
 11
69
 21
109
  0
LINE
  8
0
  6
CONTINUOUS
 62
     7
 10
290
 20
100.2027130126953
 11
213.25
 21
100.2027130126953
  0
LINE
  8
0
  6
CONTINUOUS
 62
     7
 10
213.2499847412109
 20
98.30000305175781
 11
211.2499847412109
 21
96.30000305175781
  0
LINE
  8
0
  6
CENTER
 62
     7
 10
199.5
 20
93
 11
192.5
 21
93
  0
LINE
  8
0
  6
CONTINUOUS
 62
     7
 10
290
 20
99
 11
213.25
 21
99
  0
LINE
  8
0
  6
CONTINUOUS
 62
     7
 10
203.3499450683594
 20
101.5487899780273
 11
156.6500549316406
 21
101.5487899780273
  0
LINE
  8
0
  6
CENTER
 62
     7
 10
270
 20
114.75
 11
270
 21
103.25
  0
LINE
  8
0
  6
CONTINUOUS
 62
     7
 10
211.25
 20
88.94999694824219
 11
210.25
 21
88.94999694824219
  0
LINE
  8
0
  6
CONTINUOUS
 62
     7
 10
290
 20
102.4969940185547
 11
213.25
 21
102.4969940185547
  0
LINE
  8
0
  6
CONTINUOUS
 62
     7
 10
210.25
 20
88.69999694824219
 11
203.3499450683594
 21
88.69999694824219
  0
LINE
  8
0
  6
CENTER
 62
     7
 10
196
 20
96.5
 11
196
 21
89.5
  0
LINE
  8
0
  6
CONTINUOUS
 62
     7
 10
203.3499450683594
 20
88
 11
156.6500549316406
 21
88
  0
LINE
  8
0
  6
CONTINUOUS
 62
     7
 10
147.7500305175781
 20
104.9999847412109
 11
147.7500305175781
 21
112.9999847412109
  0
LINE
  8
0
  6
CONTINUOUS
 62
     7
 10
144.4501190185547
 20
113
 11
147.7500305175781
 21
113
  0
LINE
  8
0
  6
CONTINUOUS
 62
     7
 10
146.0701446533203
 20
105
 11
147.7500305175781
 21
105
  0
LINE
  8
0
  6
CONTINUOUS
 62
     7
 10
140.4501037597656
 20
109
 11
140.4501037597656
 21
107.327880859375
  0
LINE
  8
0
  6
CONTINUOUS
 62
     7
 10
147.7500152587891
 20
113
 11
149.7500152587891
 21
113
  0
LINE
  8
0
  6
CONTINUOUS
 62
     7
 10
147.7500152587891
 20
105
 11
149.7500152587891
 21
105
  0
LINE
  8
0
  6
CENTER
 62
     7
 10
140.0018768310547
 20
97.47788238525391
 11
144.8671722412109
 21
109.223762512207
  0
LINE
  8
0
  6
CONTINUOUS
 62
     7
 10
138.2327880859375
 20
99.47843933105469
 11
142.6674194335938
 21
97.64155578613281
  0
LINE
  8
0
  6
CONTINUOUS
 62
     7
 10
138.4345550537109
 20
102.3173370361328
 11
144.5321502685547
 21
99.79163360595703
  0
LINE
  8
0
  6
CONTINUOUS
 62
     7
 10
138.2327880859375
 20
99.47845458984375
 11
138.4345550537109
 21
102.3173446655273
  0
LINE
  8
0
  6
CONTINUOUS
 62
     7
 10
142.6674194335938
 20
97.64155578613281
 11
144.5321655273438
 21
99.79163360595703
  0
LINE
  8
0
  6
CONTINUOUS
 62
     7
 10
139.1732635498047
 20
106.0381927490234
 11
139.5879364013672
 21
107.0392608642578
  0
LINE
  8
0
  6
CONTINUOUS
 62
     7
 10
146.6408538818359
 20
102.9449996948242
 11
147.0555114746094
 21
103.9460678100586
  0
LINE
  8
0
  6
CONTINUOUS
 62
     7
 10
140.3673706054688
 20
107.3620910644531
 11
139.5879364013672
 21
107.0392379760742
  0
LINE
  8
0
  6
CONTINUOUS
 62
     7
 10
140.8105621337891
 20
104.7105941772461
 11
141.6831359863281
 21
106.8171615600586
  0
LINE
  8
0
  6
CONTINUOUS
 62
     7
 10
140.3673858642578
 20
107.3621597290039
 11
146.7326965332031
 21
104.7255630493164
  0
LINE
  8
0
  6
CONTINUOUS
 62
     7
 10
147.0555267333984
 20
103.9460601806641
 11
146.732666015625
 21
104.7255096435547
  0
LINE
  8
0
  6
CONTINUOUS
 62
     7
 10
139.5648345947266
 20
103.7394866943359
 11
144.7385406494141
 21
101.5964508056641
  0
LINE
  8
0
  6
CONTINUOUS
 62
     7
 10
146.75
 20
113
 11
146.75
 21
119.6999969482422
  0
LINE
  8
0
  6
CONTINUOUS
 62
     7
 10
148.75
 20
113
 11
148.75
 21
129.0500030517578
  0
LINE
  8
0
  6
CONTINUOUS
 62
     7
 10
139.4948120117188
 20
105.2555847167969
 11
145.8601226806641
 21
102.6189880371094
  0
LINE
  8
0
  6
CONTINUOUS
 62
     7
 10
144.5443420410156
 20
103.1640014648438
 11
145.4169006347656
 21
105.2705764770508
  0
LINE
  8
0
  6
CONTINUOUS
 62
     7
 10
145.819091796875
 20
102.4969940185547
 11
146.75
 21
102.4969940185547
  0
LINE
  8
0
  6
CONTINUOUS
 62
     7
 10
144.6715393066406
 20
100.2027130126953
 11
146.75
 21
100.2027130126953
  0
LINE
  8
0
  6
CONTINUOUS
 62
     7
 10
144.5965423583984
 20
99.95988464355469
 11
146.75
 21
99.95988464355469
  0
LINE
  8
0
  6
CONTINUOUS
 62
     7
 10
143.8455810546875
 20
99
 11
146.75
 21
99
  0
LINE
  8
0
  6
CONTINUOUS
 62
     7
 10
146.75
 20
104.6836318969727
 11
146.75
 21
105
  0
LINE
  8
0
  6
CONTINUOUS
 62
     7
 10
17.704833984375
 20
6.949984073638916
 11
17.704833984375
 21
7.899993896484375
  0
LINE
  8
0
  6
CONTINUOUS
 62
     7
 10
17.704833984375
 20
6.949984073638916
 11
11.05483436584473
 21
6.949984073638916
  0
LINE
  8
0
  6
CONTINUOUS
 62
     7
 10
11.53114891052246
 20
6.949984073638916
 11
11.53114891052246
 21
6
  0
LINE
  8
0
  6
CONTINUOUS
 62
     7
 10
9.80023193359375
 20
5.999597549438477
 11
8.702751159667969
 21
7.899993896484375
  0
LINE
  8
0
  6
CONTINUOUS
 62
     7
 10
11.53114891052246
 20
6
 11
9.800832748413086
 21
6
  0
LINE
  8
0
  6
CONTINUOUS
 62
     7
 10
149.75
 20
6.949984073638916
 11
210.25
 21
6.949984073638916
  0
LINE
  8
0
  6
CONTINUOUS
 62
     7
 10
149.75
 20
6
 11
210.25
 21
6
  0
ARC
  8
0
  6
CONTINUOUS
 62
     7
 10
-7.64990234375
 20
16.68598937988281
 40
1.649999618530273
 50
225.9545322552649
 51
314.0454627357787
  0
ARC
  8
0
  6
CONTINUOUS
 62
     7
 10
-10.6552734375
 20
11.47599792480469
 40
1.649999618530274
 50
7.05314020490028
 51
52.94684438927891
  0
ARC
  8
0
  6
CONTINUOUS
 62
     7
 10
7.650146484375
 20
16.68598937988281
 40
1.649999618530273
 50
225.9545322552649
 51
314.0454627357787
  0
ARC
  8
0
  6
CONTINUOUS
 62
     7
 10
10.655517578125
 20
11.47599792480469
 40
1.649999618530273
 50
113.4084678090809
 51
172.9469467663261
  0
ARC
  8
0
  6
CONTINUOUS
 62
     7
 10
-7.446044921875
 20
7.55621337890625
 40
0.6999999880790714
 50
300.0000119907263
 51
29.99999058954229
  0
ARC
  8
0
  6
CONTINUOUS
 62
     7
 10
7.4462890625
 20
7.55621337890625
 40
0.6999999880790713
 50
150.0000246646978
 51
239.9999520370951
  0
ARC
  8
0
  6
CONTINUOUS
 62
     7
 10
7.650146484375
 20
18.66999816894531
 40
0.9499995708465582
 50
209.652455310332
 51
330.3475465109009
  0
ARC
  8
0
  6
CONTINUOUS
 62
     7
 10
11.6552734375
 20
9.854293823242188
 40
1.000000000000001
 50
150.0000246646978
 51
239.9999520370951
  0
ARC
  8
0
  6
CONTINUOUS
 62
     7
 10
7.720458984375
 20
8.43096923828125
 40
0.4999999999999996
 50
153.2050226308346
 51
239.9999520370951
  0
ARC
  8
0
  6
CONTINUOUS
 62
     7
 10
7.610107421875
 20
19.70999145507813
 40
0.9683421850204466
 50
215.3314570768741
 51
278.2972225067941
  0
ARC
  8
0
  6
CONTINUOUS
 62
     7
 10
6.6201171875
 20
17.91999816894531
 40
1.246148109436035
 50
80.76452806729958
 51
142.1250351177266
  0
ARC
  8
0
  6
CONTINUOUS
 62
     7
 10
6.6201171875
 20
26.08000183105469
 40
1.254199028015136
 50
217.8749648822735
 51
279.2353626496737
  0
ARC
  8
0
  6
CONTINUOUS
 62
     7
 10
7.610107421875
 20
24.28999328613281
 40
0.9701611399650563
 50
81.7028867762326
 51
144.668542923126
  0
ARC
  8
0
  6
CONTINUOUS
 62
     7
 10
0
 20
22
 40
3.998106002807619
 50
61.09402038976974
 51
298.9059076658729
  0
ARC
  8
0
  6
CONTINUOUS
 62
     7
 10
-7.64990234375
 20
18.66999816894531
 40
0.9499995708465574
 50
209.652455310332
 51
330.3475465109009
  0
ARC
  8
0
  6
CONTINUOUS
 62
     7
 10
-11.655029296875
 20
9.854293823242188
 40
1
 50
300.0000666322396
 51
29.99997351406931
  0
ARC
  8
0
  6
CONTINUOUS
 62
     7
 10
-7.72021484375
 20
8.43096923828125
 40
0.5000000000000001
 50
300.0000666322396
 51
29.99998375935306
  0
ARC
  8
0
  6
CONTINUOUS
 62
     7
 10
-11.05483436584473
 20
7.899993896484375
 40
0.9499999284744259
 50
270.0000179860894
 51
0.0003091797122737126
  0
ARC
  8
0
  6
CONTINUOUS
 62
     7
 10
143.75
 20
22.00009155273438
 40
3.999999999999998
 50
89.99998201391055
 51
118.4958044387708
  0
ARC
  8
0
  6
CONTINUOUS
 62
     7
 10
143.75
 20
22.00009155273438
 40
3.982465744018556
 50
241.5040862782025
 51
269.9999087030627
  0
CIRCLE
  8
0
  6
CONTINUOUS
 62
     7
 10
164
 20
93
 40
2.150000095367432
  0
CIRCLE
  8
0
  6
CONTINUOUS
 62
     7
 10
164
 20
93
 40
2.5
  0
CIRCLE
  8
0
  6
CONTINUOUS
 62
     7
 10
90
 20
109
 40
4.75
  0
CIRCLE
  8
0
  6
CONTINUOUS
 62
     7
 10
90
 20
109
 40
3
  0
ARC
  8
0
  6
CONTINUOUS
 62
     7
 10
141.4833679199219
 20
101.0544738769531
 40
3.299999237060557
 50
131.5803705110075
 51
157.4999548639651
  0
ARC
  8
0
  6
CONTINUOUS
 62
     7
 10
141.4833679199219
 20
101.0544738769531
 40
3.29999923706055
 50
337.5000181569006
 51
3.419602296415186
  0
ARC
  8
0
  6
CONTINUOUS
 62
     7
 10
133.5670166015625
 20
103.9005737304688
 40
6.00000000000001
 50
2.43365082934552
 51
20.87173987704913
  0
ARC
  8
0
  6
CONTINUOUS
 62
     7
 10
149.0935363769531
 20
97.46926879882813
 40
6.000000000000011
 50
114.1278165022775
 51
132.5663219780771
  0
ARC
  8
0
  6
CONTINUOUS
 62
     7
 10
138.7622985839844
 20
104.1213684082031
 40
0.7999999523162822
 50
311.5798327472963
 51
2.433049772698627
  0
ARC
  8
0
  6
CONTINUOUS
 62
     7
 10
145.5760498046875
 20
101.2990264892578
 40
0.7999999523162747
 50
132.5669776762372
 51
183.4201402735702
  0
ARC
  8
0
  6
CONTINUOUS
 62
     7
 10
144.4501037597656
 20
109
 40
3.999999999999998
 50
89.99998201391055
 51
180.0000186693347
  0
ARC
  8
0
  6
CONTINUOUS
 62
     7
 10
11.05483436584473
 20
7.899993896484375
 40
0.9499999284744271
 50
179.9996908202545
 51
269.9999733624886
  0
POLYLINE
  8
0
  6
CONTINUOUS
 62
     7
 66
     1
 10
0
 20
0
  0
VERTEX
  8
0
  6
CONTINUOUS
 62
     7
 10
6.820068359375
 20
24.8499755859375
 42
0.1885789354394468
  0
VERTEX
  8
0
  6
CONTINUOUS
 62
     7
 10
6.460340646671255
 20
24.69028472367525
 42
0.07574244361860745
  0
VERTEX
  8
0
  6
CONTINUOUS
 62
     7
 10
6.216109078558669
 20
24.37244727503471
 42
0.03933441130898555
  0
VERTEX
  8
0
  6
CONTINUOUS
 62
     7
 10
6.046247817523368
 20
24.0071146554796
 42
0.0257702261281544
  0
VERTEX
  8
0
  6
CONTINUOUS
 62
     7
 10
5.924091743984418
 20
23.6229656167918
 42
0.01950444828012556
  0
VERTEX
  8
0
  6
CONTINUOUS
 62
     7
 10
5.836597916854423
 20
23.22875562410386
 42
0.01621398503865195
  0
VERTEX
  8
0
  6
CONTINUOUS
 62
     7
 10
5.777233499820522
 20
22.82916637026607
 42
0.01446599208440805
  0
VERTEX
  8
0
  6
CONTINUOUS
 62
     7
 10
5.742360581290934
 20
22.42664322193476
 42
0.01369076240761477
  0
VERTEX
  8
0
  6
CONTINUOUS
 62
     7
 10
5.730106323576757
 20
22.02250032437938
 42
0.01360566335298707
  0
VERTEX
  8
0
  6
CONTINUOUS
 62
     7
 10
5.73982436726772
 20
21.61965627271868
 42
0.01431483577561537
  0
VERTEX
  8
0
  6
CONTINUOUS
 62
     7
 10
5.771975711061604
 20
21.21740613366577
 42
0.01598134685394616
  0
VERTEX
  8
0
  6
CONTINUOUS
 62
     7
 10
5.828487562983152
 20
20.8165893837605
 42
0.01902611244822086
  0
VERTEX
  8
0
  6
CONTINUOUS
 62
     7
 10
5.912549178179487
 20
20.42143711227581
 42
0.02487889210572565
  0
VERTEX
  8
0
  6
CONTINUOUS
 62
     7
 10
6.03056358886492
 20
20.03504180708984
 42
0.03729480303986422
  0
VERTEX
  8
0
  6
CONTINUOUS
 62
     7
 10
6.194635633313293
 20
19.66585824574866
 42
0.06998072190960362
  0
VERTEX
  8
0
  6
CONTINUOUS
 62
     7
 10
6.430216112886583
 20
19.33852528513459
 42
0.1738226602511774
  0
VERTEX
  8
0
  6
CONTINUOUS
 62
     7
 10
6.779979201797491
 20
19.15192197053593
 42
0
  0
SEQEND
  8
0
  0
POLYLINE
  8
0
  6
CONTINUOUS
 62
     7
 66
     1
 10
0
 20
0
 70
     1
  0
VERTEX
  8
0
  6
CONTINUOUS
 62
     7
 10
10.52001953125
 20
24.5
 42
0.2551605281481423
  0
VERTEX
  8
0
  6
CONTINUOUS
 62
     7
 10
9.990202750479739
 20
24.07511834744248
 42
0.06319271445580761
  0
VERTEX
  8
0
  6
CONTINUOUS
 62
     7
 10
9.736102618308747
 20
23.41223209505605
 42
0.03518703029839194
  0
VERTEX
  8
0
  6
CONTINUOUS
 62
     7
 10
9.609370472692845
 20
22.7121812488475
 42
0.02798589179772874
  0
VERTEX
  8
0
  6
CONTINUOUS
 62
     7
 10
9.57000732421875
 20
22
 42
0.02790009419002959
  0
VERTEX
  8
0
  6
CONTINUOUS
 62
     7
 10
9.609141740132959
 20
21.28985099016532
 42
0.03516093888087672
  0
VERTEX
  8
0
  6
CONTINUOUS
 62
     7
 10
9.735638526659862
 20
20.5895594726779
 42
0.06315679289242825
  0
VERTEX
  8
0
  6
CONTINUOUS
 62
     7
 10
9.98967590271929
 20
19.92581974598598
 42
0.2552812160363974
  0
VERTEX
  8
0
  6
CONTINUOUS
 62
     7
 10
10.52001953125
 20
19.5
 42
0.2551559578744377
  0
VERTEX
  8
0
  6
CONTINUOUS
 62
     7
 10
11.04983493541096
 20
19.92488519003005
 42
0.06319253877387372
  0
VERTEX
  8
0
  6
CONTINUOUS
 62
     7
 10
11.30393573583335
 20
20.58777121513414
 42
0.03518717651549724
  0
VERTEX
  8
0
  6
CONTINUOUS
 62
     7
 10
11.43066852454271
 20
21.28782195034705
 42
0.02798603583735517
  0
VERTEX
  8
0
  6
CONTINUOUS
 62
     7
 10
11.47003173828125
 20
22
 42
0.02789900851435107
  0
VERTEX
  8
0
  6
CONTINUOUS
 62
     7
 10
11.43089016769574
 20
22.71014864099245
 42
0.03515957623319515
  0
VERTEX
  8
0
  6
CONTINUOUS
 62
     7
 10
11.30438968761925
 20
23.41043954460519
 42
0.06315466501143441
  0
VERTEX
  8
0
  6
CONTINUOUS
 62
     7
 10
11.05035327340711
 20
24.0741798129032
 42
0.2552827079446852
  0
SEQEND
  8
0
  0
POLYLINE
  8
0
  6
CONTINUOUS
 62
     7
 66
     1
 10
0
 20
0
 70
     1
  0
VERTEX
  8
0
  6
CONTINUOUS
 62
     7
 10
139.449951171875
 20
24.50009155273438
 42
0.1103785476709535
  0
VERTEX
  8
0
  6
CONTINUOUS
 62
     7
 10
138.5377970741258
 20
24.2950742034744
 42
0.1025055567411126
  0
VERTEX
  8
0
  6
CONTINUOUS
 62
     7
 10
137.7904658750024
 20
23.73106667601726
 42
0.09328871158631517
  0
VERTEX
  8
0
  6
CONTINUOUS
 62
     7
 10
137.3128600553918
 20
22.92417779070723
 42
0.08782030193833329
  0
VERTEX
  8
0
  6
CONTINUOUS
 62
     7
 10
137.1499633789063
 20
22.00007629394531
 42
0.08777189560577944
  0
VERTEX
  8
0
  6
CONTINUOUS
 62
     7
 10
137.3126834883735
 20
21.07645954236113
 42
0.09326090936424698
  0
VERTEX
  8
0
  6
CONTINUOUS
 62
     7
 10
137.7899734797451
 20
20.26965230805819
 42
0.1026322129752052
  0
VERTEX
  8
0
  6
CONTINUOUS
 62
     7
 10
138.5381753728122
 20
19.70491920085034
 42
0.110332324752851
  0
VERTEX
  8
0
  6
CONTINUOUS
 62
     7
 10
139.449951171875
 20
19.50009155273438
 42
0.1103806065811746
  0
VERTEX
  8
0
  6
CONTINUOUS
 62
     7
 10
140.3621068990063
 20
19.70510008514389
 42
0.1025073495130194
  0
VERTEX
  8
0
  6
CONTINUOUS
 62
     7
 10
141.1094387137911
 20
20.2691063825857
 42
0.09328891142526197
  0
VERTEX
  8
0
  6
CONTINUOUS
 62
     7
 10
141.5870423650385
 20
21.07599644556624
 42
0.08781967708489982
  0
VERTEX
  8
0
  6
CONTINUOUS
 62
     7
 10
141.7499389648438
 20
22.00010681152344
 42
0.08777261078531957
  0
VERTEX
  8
0
  6
CONTINUOUS
 62
     7
 10
141.5872173633223
 20
22.92372317602963
 42
0.09326084649260115
  0
VERTEX
  8
0
  6
CONTINUOUS
 62
     7
 10
141.1099249850778
 20
23.73052897055606
 42
0.1026313650499571
  0
VERTEX
  8
0
  6
CONTINUOUS
 62
     7
 10
140.3617223918247
 20
24.29526129479001
 42
0.1103308093466562
  0
SEQEND
  8
0
  0
POLYLINE
  8
0
  6
CONTINUOUS
 62
     7
 66
     1
 10
0
 20
0
  0
VERTEX
  8
0
  6
CONTINUOUS
 62
     7
 10
140.550048828125
 20
25.25009155273438
 42
0.01434915631296543
  0
VERTEX
  8
0
  6
CONTINUOUS
 62
     7
 10
140.3911678353358
 20
25.24552977116916
 42
0.01426049029890087
  0
VERTEX
  8
0
  6
CONTINUOUS
 62
     7
 10
140.2335568628332
 20
25.23195368641033
 42
0.01417559997493823
  0
VERTEX
  8
0
  6
CONTINUOUS
 62
     7
 10
140.0774579018059
 20
25.20951033668721
 42
0.01415078432501027
  0
VERTEX
  8
0
  6
CONTINUOUS
 62
     7
 10
139.9224958607122
 20
25.17818644403166
 42
0.01410149026709346
  0
VERTEX
  8
0
  6
CONTINUOUS
 62
     7
 10
139.7692340047077
 20
25.13807829642746
 42
0.01402948227534373
  0
VERTEX
  8
0
  6
CONTINUOUS
 62
     7
 10
139.6182173143447
 20
25.08933372005383
 42
0.01393689961011757
  0
VERTEX
  8
0
  6
CONTINUOUS
 62
     7
 10
139.4699670061811
 20
25.03214786592493
 42
0.01382617919389474
  0
VERTEX
  8
0
  6
CONTINUOUS
 62
     7
 10
139.3249759132851
 20
24.96675821962558
 42
0.01369997094910003
  0
VERTEX
  8
0
  6
CONTINUOUS
 62
     7
 10
139.1837048429439
 20
24.89343905167476
 42
0.013561051174272
  0
VERTEX
  8
0
  6
CONTINUOUS
 62
     7
 10
139.0465799755129
 20
24.81249554272303
 42
0.0133223195211212
  0
VERTEX
  8
0
  6
CONTINUOUS
 62
     7
 10
138.9148697897184
 20
24.72487676514727
 42
0.01328775385002141
  0
VERTEX
  8
0
  6
CONTINUOUS
 62
     7
 10
138.786848703292
 20
24.62951322530753
 42
0.01315481200267901
  0
VERTEX
  8
0
  6
CONTINUOUS
 62
     7
 10
138.6637963264155
 20
24.52730757216213
 42
0.01293826890316013
  0
VERTEX
  8
0
  6
CONTINUOUS
 62
     7
 10
138.5467520613029
 20
24.41929305875481
 42
0.01278028624395284
  0
VERTEX
  8
0
  6
CONTINUOUS
 62
     7
 10
138.4354156340702
 20
24.30540392736336
 42
0.01262528523567198
  0
VERTEX
  8
0
  6
CONTINUOUS
 62
     7
 10
138.3300061663628
 20
24.18600674162688
 42
0
  0
SEQEND
  8
0
  0
POLYLINE
  8
0
  6
CONTINUOUS
 62
     7
 66
     1
 10
0
 20
0
  0
VERTEX
  8
0
  6
CONTINUOUS
 62
     7
 10
138.3259806841149
 20
19.81897147075329
 42
0.06283239169785962
  0
VERTEX
  8
0
  6
CONTINUOUS
 62
     7
 10
138.8902799078084
 20
19.29279961834311
 42
0.06649755648990835
  0
VERTEX
  8
0
  6
CONTINUOUS
 62
     7
 10
139.5702812600781
 20
18.92829663139672
 42
0.06915606624081691
  0
VERTEX
  8
0
  6
CONTINUOUS
 62
     7
 10
140.3226367765117
 20
18.75944154658357
 42
0.06975032428252279
  0
VERTEX
  8
0
  6
CONTINUOUS
 62
     7
 10
141.0913919732763
 20
18.80343917469305
 42
0.0681639956886938
  0
VERTEX
  8
0
  6
CONTINUOUS
 62
     7
 10
141.8192358373926
 20
19.05525966396403
 42
0.06499630438154862
  0
VERTEX
  8
0
  6
CONTINUOUS
 62
     7
 10
142.4558014539494
 20
19.49009135263799
 42
0.0612910985165574
  0
VERTEX
  8
0
  6
CONTINUOUS
 62
     7
 10
142.9638580695191
 20
20.07019325182143
 42
0.05807955620495088
  0
VERTEX
  8
0
  6
CONTINUOUS
 62
     7
 10
143.3208539027112
 20
20.75418799151936
 42
0.05590509360263975
  0
VERTEX
  8
0
  6
CONTINUOUS
 62
     7
 10
143.5145116733011
 20
21.50133229985414
 42
0.05496341954615937
  0
VERTEX
  8
0
  6
CONTINUOUS
 62
     7
 10
143.5395266040953
 20
22.27205492945235
 42
0.05547382898695182
  0
VERTEX
  8
0
  6
CONTINUOUS
 62
     7
 10
143.3954479842896
 20
23.02994440136203
 42
0.05728038304213281
  0
VERTEX
  8
0
  6
CONTINUOUS
 62
     7
 10
143.0860387949653
 20
23.73638640194766
 42
0.06026828388597959
  0
VERTEX
  8
0
  6
CONTINUOUS
 62
     7
 10
142.6208002160691
 20
24.3516958797228
 42
0.06395245113380844
  0
VERTEX
  8
0
  6
CONTINUOUS
 62
     7
 10
142.0185940118114
 20
24.83407487540421
 42
0.06744497101876903
  0
VERTEX
  8
0
  6
CONTINUOUS
 62
     7
 10
141.3119367639445
 20
25.14353717091809
 42
0.06944158250071021
  0
VERTEX
  8
0
  6
CONTINUOUS
 62
     7
 10
140.550048828125
 20
25.25009155273438
 42
0
  0
SEQEND
  8
0
  0
TEXT
  8
0
  6
CONTINUOUS
 62
     7
 10
-11.28550004959106
 20
-31.79999995231628
 40
3.599999904632568
 41
0.8463235853572091
  1
ＳＲ２０Ｍ１Ｗ
  0
ENDSEC
  0
EOF
