  0
SECTION
  2
HEADER
  0
ENDSEC
  0
SECTION
  2
TABLES
  0
TABLE
  2
LTYPE
 70
    22
  0
LTYPE
  2
CONTINUOUS
 70
    64
  3
Solid line
 72
    65
 73
     0
 40
0.000000
  0
LTYPE
  2
DASHED
 70
    64
  3
__ __ __ __ __ __ __ __ __ __ __ __ __ __ __
 72
    65
 73
     2
 40
3.500000
 49
2.000000
 49
-1.500000
  0
LTYPE
  2
CENTER
 70
    64
  3
____ _ ____ _ ____ _ ____ _ ____ _ ____ _ ____
 72
    65
 73
     4
 40
17.500000
 49
13.000000
 49
-1.500000
 49
1.500000
 49
-1.500000
  0
LTYPE
  2
PHANTOM
 70
    64
  3
_____ _ _ _____ _ _ _____ _ _ _____ _ _ ____  
 72
    65
 73
     6
 40
15.500000
 49
8.000000
 49
-1.500000
 49
1.500000
 49
-1.500000
 49
1.500000
 49
-1.500000
  0
LTYPE
  2
DOT
 70
    64
  3
. . . . . . . . . . . . . . . . . . . . . . . .
 72
    65
 73
     2
 40
0.25
 49
0.0
 49
-0.25
  0
ENDTAB
  0
TABLE
  2
LAYER
 70
     1
  0
LAYER
  2
0
 70
     0
 62
     7
  6
CONTINUOUS
  0
ENDTAB
  0
TABLE
  2
STYLE
 70
     1
  0
STYLE
  2
STANDARD
 70
     0
 40
0.000000
 41
1.000000
 50
0.000000
 71
     0
 42
0.200000
  3
txt
  4
BIGFONT
  0
ENDTAB
  0
TABLE
  2
VIEW
 70
     0
  0
ENDTAB
  0
ENDSEC
  0
SECTION
  2
BLOCKS
  0
ENDSEC
  0
SECTION
  2
ENTITIES
  0
LINE
  8
0
  6
CONTINUOUS
 62
     7
 10
-11.49953651428223
 20
1.350226640701294
 11
-10.14954280853272
 21
0.0002327664115000516
  0
LINE
  8
0
  6
CONTINUOUS
 62
     7
 10
-2.2998046875
 20
0.5999908447265625
 11
2.300048828125
 21
0.5999908447265625
  0
LINE
  8
0
  6
CONTINUOUS
 62
     7
 10
-2.299861669540405
 20
0.5999154448509216
 11
-2.899860382080078
 21
-8.318943582708016E-005
  0
LINE
  8
0
  6
CONTINUOUS
 62
     7
 10
2.300043106079102
 20
0.6000897288322449
 11
2.900117158889771
 21
1.577134025865234E-005
  0
LINE
  8
0
  6
CONTINUOUS
 62
     7
 10
2.900146484375
 20
0
 11
10.150146484375
 21
0
  0
LINE
  8
0
  6
CONTINUOUS
 62
     7
 10
-22.00042915344238
 20
31.79998779296875
 11
22
 21
31.79998779296875
  0
LINE
  8
0
  6
CENTER
 62
     7
 10
0
 20
33.99998474121094
 11
0
 21
-1
  0
LINE
  8
0
  6
CONTINUOUS
 62
     7
 10
23.25
 20
30.29997253417969
 11
23.25
 21
10.59999084472656
  0
LINE
  8
0
  6
CONTINUOUS
 62
     7
 10
21.75034332275391
 20
31.80005836486816
 11
23.25031089782715
 21
30.30008697509766
  0
LINE
  8
0
  6
CONTINUOUS
 62
     7
 10
23.25056838989258
 20
10.59948635101318
 11
21.75058746337891
 21
9.099506378173828
  0
LINE
  8
0
  6
CONTINUOUS
 62
     7
 10
10.655029296875
 20
9.099990844726563
 11
21.75
 21
9.099990844726563
  0
LINE
  8
0
  6
CONTINUOUS
 62
     7
 10
-8.181884765625
 20
20.69998168945313
 11
8.18212890625
 21
20.69998168945313
  0
LINE
  8
0
  6
CONTINUOUS
 62
     7
 10
8.985074043273926
 20
10.28285789489746
 11
10.65528774261475
 21
9.100029945373535
  0
LINE
  8
0
  6
CONTINUOUS
 62
     7
 10
10.01806640625
 20
20.69998168945313
 11
11.792724609375
 21
20.69998168945313
  0
LINE
  8
0
  6
CONTINUOUS
 62
     7
 10
14.10009765625
 20
18.39295959472656
 11
11.79290866851807
 21
20.70014953613281
  0
LINE
  8
0
  6
CONTINUOUS
 62
     7
 10
14.10009765625
 20
15.06689453125
 11
14.10009765625
 21
18.39295959472656
  0
LINE
  8
0
  6
CONTINUOUS
 62
     7
 10
14.10025691986084
 20
15.06682968139648
 11
12.65525722503662
 21
12.56401634216309
  0
LINE
  8
0
  6
CONTINUOUS
 62
     7
 10
13.02113723754883
 20
11.19800758361816
 11
16.6550178527832
 21
9.099986076354981
  0
LINE
  8
0
  6
CENTER
 62
     7
 10
17.5
 20
33.99998474121094
 11
17.5
 21
18.05528259277344
  0
LINE
  8
0
  6
CONTINUOUS
 62
     7
 10
-10.14990234375
 20
0
 11
-2.89990234375
 21
0
  0
LINE
  8
0
  6
CONTINUOUS
 62
     7
 10
23.5
 20
30.29997253417969
 11
23.5
 21
11.39997863769531
  0
LINE
  8
0
  6
CONTINUOUS
 62
     7
 10
22.00039291381836
 20
31.80002593994141
 11
23.50035667419434
 21
30.30005073547363
  0
LINE
  8
0
  6
CONTINUOUS
 62
     7
 10
23.25049591064453
 20
11.14940738677979
 11
23.50051307678223
 21
11.39942359924316
  0
LINE
  8
0
  6
CENTER
 62
     7
 10
-6.369873046875
 20
25.99998474121094
 11
13.31005859375
 21
25.99998474121094
  0
LINE
  8
0
  6
CONTINUOUS
 62
     7
 10
1.780029296875
 20
29.49998474121094
 11
5.860107421875
 21
29.49998474121094
  0
LINE
  8
0
  6
CONTINUOUS
 62
     7
 10
1.780029296875
 20
22.49998474121094
 11
5.860107421875
 21
22.49998474121094
  0
LINE
  8
0
  6
CONTINUOUS
 62
     7
 10
1.130279064178467
 20
25.99999809265137
 11
1.780272841453552
 21
22.49999618530273
  0
LINE
  8
0
  6
CONTINUOUS
 62
     7
 10
1.130505442619324
 20
25.99984169006348
 11
1.780494332313538
 21
29.49981498718262
  0
LINE
  8
0
  6
CONTINUOUS
 62
     7
 10
3.440274238586426
 20
25.99997901916504
 11
4.090282917022705
 21
22.49998092651367
  0
LINE
  8
0
  6
CONTINUOUS
 62
     7
 10
3.440314054489136
 20
25.99986839294434
 11
4.090322494506836
 21
29.4998664855957
  0
LINE
  8
0
  6
CONTINUOUS
 62
     7
 10
5.950573921203613
 20
22.96980857849121
 11
5.860561847686768
 21
22.49980545043945
  0
LINE
  8
0
  6
CONTINUOUS
 62
     7
 10
5.950668334960938
 20
29.02006340026856
 11
5.860657691955566
 21
29.50007057189941
  0
LINE
  8
0
  6
CONTINUOUS
 62
     7
 10
7.766208648681641
 20
22.75410461425781
 11
10.52007961273193
 21
23.49973678588867
  0
LINE
  8
0
  6
CONTINUOUS
 62
     7
 10
7.750134468078613
 20
29.24988555908203
 11
10.52026462554932
 21
28.49985122680664
  0
LINE
  8
0
  6
CONTINUOUS
 62
     7
 10
0.00255035306327045
 20
21.38187026977539
 11
1.947835326194763
 21
22.49986457824707
  0
LINE
  8
0
  6
CONTINUOUS
 62
     7
 10
0.006584066897630692
 20
30.61511421203613
 11
1.938015341758728
 21
29.50000190734863
  0
LINE
  8
0
  6
CONTINUOUS
 62
     7
 10
13.10009765625
 20
8.899978637695313
 11
20.10009765625
 21
8.899978637695313
  0
LINE
  8
0
  6
CONTINUOUS
 62
     7
 10
22.65011787414551
 20
32.99987411499023
 11
24.00009155273438
 21
31.64990234375
  0
LINE
  8
0
  6
CONTINUOUS
 62
     7
 10
-22.64990234375
 20
32.99998474121094
 11
-9.449951171875
 21
32.99998474121094
  0
LINE
  8
0
  6
CONTINUOUS
 62
     7
 10
-22.699951171875
 20
9.699981689453125
 11
-22.349853515625
 21
9.699981689453125
  0
LINE
  8
0
  6
CONTINUOUS
 62
     7
 10
-24
 20
24.99998474121094
 11
-24
 21
31.64997863769531
  0
LINE
  8
0
  6
CONTINUOUS
 62
     7
 10
-8.999820709228516
 20
32.54985809326172
 11
-9.44987678527832
 21
32.99991226196289
  0
LINE
  8
0
  6
CONTINUOUS
 62
     7
 10
-23.69989395141602
 20
24.70005226135254
 11
-23.99975967407227
 21
24.99991607666016
  0
LINE
  8
0
  6
CONTINUOUS
 62
     7
 10
-22.69953346252441
 20
9.700263023376465
 11
-23.69943618774414
 21
10.70014667510986
  0
LINE
  8
0
  6
CONTINUOUS
 62
     7
 10
-23.25
 20
10.59999084472656
 11
-23.25
 21
30.30039978027344
  0
LINE
  8
0
  6
CONTINUOUS
 62
     7
 10
-21.74955177307129
 20
9.100307464599609
 11
-23.24939346313477
 21
10.60014629364014
  0
LINE
  8
0
  6
CONTINUOUS
 62
     7
 10
-21.749755859375
 20
9.099990844726563
 11
-10.65478515625
 21
9.099990844726563
  0
LINE
  8
0
  6
CONTINUOUS
 62
     7
 10
-10.65469360351563
 20
9.099658012390137
 11
-8.984367370605469
 21
10.28256607055664
  0
LINE
  8
0
  6
CONTINUOUS
 62
     7
 10
-11.79248046875
 20
20.69998168945313
 11
-10.017822265625
 21
20.69998168945313
  0
LINE
  8
0
  6
CONTINUOUS
 62
     7
 10
-11.79200458526611
 20
20.69936561584473
 11
-14.099853515625
 21
18.39151763916016
  0
LINE
  8
0
  6
CONTINUOUS
 62
     7
 10
-14.099853515625
 20
18.39151763916016
 11
-14.099853515625
 21
15.06689453125
  0
LINE
  8
0
  6
CONTINUOUS
 62
     7
 10
-12.65480327606201
 20
12.56418609619141
 11
-14.09980297088623
 21
15.06699943542481
  0
LINE
  8
0
  6
CONTINUOUS
 62
     7
 10
-16.65492820739746
 20
9.099902153015137
 11
-13.02093982696533
 21
11.19798564910889
  0
LINE
  8
0
  6
CENTER
 62
     7
 10
-17.5
 20
18.57696533203125
 11
-17.5
 21
33.99998474121094
  0
LINE
  8
0
  6
DASHED
 62
     7
 10
-14.5
 20
23.99998474121094
 11
-14.5
 21
32.99998474121094
  0
LINE
  8
0
  6
DASHED
 62
     7
 10
-20.5
 20
23.99998474121094
 11
-20.5
 21
32.99998474121094
  0
LINE
  8
0
  6
DASHED
 62
     7
 10
-20.5
 20
23.99998474121094
 11
-14.5
 21
23.99998474121094
  0
LINE
  8
0
  6
DASHED
 62
     7
 10
-14.90000057220459
 20
23.30564498901367
 11
-14.49934101104736
 21
23.99960708618164
  0
LINE
  8
0
  6
DASHED
 62
     7
 10
-20.10000038146973
 20
23.3078670501709
 11
-20.49965667724609
 21
24.00009727478027
  0
LINE
  8
0
  6
CONTINUOUS
 62
     7
 10
-23.5
 20
11.39997863769531
 11
-23.5
 21
30.30040550231934
  0
LINE
  8
0
  6
CONTINUOUS
 62
     7
 10
-23.49939155578613
 20
11.40013408660889
 11
-23.24941825866699
 21
11.15016078948975
  0
LINE
  8
0
  6
CONTINUOUS
 62
     7
 10
-20.099853515625
 20
8.899978637695313
 11
-20.099853515625
 21
9.099990844726563
  0
LINE
  8
0
  6
CONTINUOUS
 62
     7
 10
-20.099853515625
 20
8.899978637695313
 11
-13.099853515625
 21
8.899978637695313
  0
LINE
  8
0
  6
CONTINUOUS
 62
     7
 10
-23.99975776672363
 20
31.64975929260254
 11
-22.64974212646484
 21
32.99977493286133
  0
LINE
  8
0
  6
CONTINUOUS
 62
     7
 10
-3.997826814651489
 20
23.69172286987305
 11
0.00267792702652514
 21
21.38203048706055
  0
LINE
  8
0
  6
CONTINUOUS
 62
     7
 10
-3.998033046722412
 20
28.31339836120606
 11
0.006522621028125286
 21
30.61489677429199
  0
LINE
  8
0
  6
CONTINUOUS
 62
     7
 10
-3.998046875
 20
28.31353759765625
 11
-3.998046875
 21
23.69166564941406
  0
LINE
  8
0
  6
CONTINUOUS
 62
     7
 10
-23.699951171875
 20
10.69998168945313
 11
-23.699951171875
 21
24.69999694824219
  0
LINE
  8
0
  6
CONTINUOUS
 62
     7
 10
20.099853515625
 20
9.099990844726563
 11
20.099853515625
 21
8.899978637695313
  0
LINE
  8
0
  6
CONTINUOUS
 62
     7
 10
9.4501953125
 20
32.99998474121094
 11
22.650146484375
 21
32.99998474121094
  0
LINE
  8
0
  6
CONTINUOUS
 62
     7
 10
22.35009765625
 20
9.699981689453125
 11
22.7001953125
 21
9.699981689453125
  0
LINE
  8
0
  6
CONTINUOUS
 62
     7
 10
24
 20
31.64997863769531
 11
24
 21
24.99998474121094
  0
LINE
  8
0
  6
CONTINUOUS
 62
     7
 10
-8.999755859375
 20
32.54997253417969
 11
9
 21
32.54997253417969
  0
LINE
  8
0
  6
CONTINUOUS
 62
     7
 10
23.7001953125
 20
24.69999694824219
 11
23.7001953125
 21
10.69998168945313
  0
LINE
  8
0
  6
CONTINUOUS
 62
     7
 10
9.450220108032227
 20
32.99965667724609
 11
9.000229835510254
 21
32.54966735839844
  0
LINE
  8
0
  6
CONTINUOUS
 62
     7
 10
24.00023460388184
 20
24.99977111816406
 11
23.70023918151856
 21
24.69977760314941
  0
LINE
  8
0
  6
CONTINUOUS
 62
     7
 10
23.70040512084961
 20
10.69952774047852
 11
22.70039558410645
 21
9.699536323547363
  0
LINE
  8
0
  6
CONTINUOUS
 62
     7
 10
-11.5
 20
17.14999389648438
 11
-11.5
 21
15.73735046386719
  0
LINE
  8
0
  6
CONTINUOUS
 62
     7
 10
11.5
 20
17.14999389648438
 11
11.5
 21
15.73735046386719
  0
LINE
  8
0
  6
CONTINUOUS
 62
     7
 10
-10.64990234375
 20
18
 11
-10.492431640625
 21
18
  0
LINE
  8
0
  6
CONTINUOUS
 62
     7
 10
7.815881252288818
 20
9.34552001953125
 11
10.31540870666504
 21
13.67482757568359
  0
LINE
  8
0
  6
CONTINUOUS
 62
     7
 10
8.181192398071289
 20
7.979989528656006
 11
11.50025177001953
 21
6.063730239868164
  0
LINE
  8
0
  6
CONTINUOUS
 62
     7
 10
-7.814812660217285
 20
9.346174240112305
 11
-10.3143310546875
 21
13.67546939849854
  0
LINE
  8
0
  6
CONTINUOUS
 62
     7
 10
-8.180931091308594
 20
7.979761123657227
 11
-11.49991130828857
 21
6.063548088073731
  0
LINE
  8
0
  6
CONTINUOUS
 62
     7
 10
-7.720458984375
 20
18
 11
7.720703125
 21
18
  0
LINE
  8
0
  6
CONTINUOUS
 62
     7
 10
-10.64981460571289
 20
17.99982452392578
 11
-11.49981880187988
 21
17.14982032775879
  0
LINE
  8
0
  6
CONTINUOUS
 62
     7
 10
10.49267578125
 20
18
 11
10.650146484375
 21
18
  0
LINE
  8
0
  6
CONTINUOUS
 62
     7
 10
163.7501525878906
 20
32.99998474121094
 11
196.2499389648438
 21
32.99998474121094
  0
LINE
  8
0
  6
CONTINUOUS
 62
     7
 10
162.4000549316406
 20
24.99996948242188
 11
197.5999450683594
 21
24.99996948242188
  0
LINE
  8
0
  6
CONTINUOUS
 62
     7
 10
162.4000549316406
 20
10.69998168945313
 11
197.5999450683594
 21
10.69998168945313
  0
LINE
  8
0
  6
CONTINUOUS
 62
     7
 10
162.4000549316406
 20
31.79998779296875
 11
162.4000549316406
 21
9.699981689453125
  0
LINE
  8
0
  6
CONTINUOUS
 62
     7
 10
197.5999450683594
 20
31.79998779296875
 11
197.5999450683594
 21
9.699981689453125
  0
LINE
  8
0
  6
CONTINUOUS
 62
     7
 10
162.4005126953125
 20
31.64944839477539
 11
163.7505035400391
 21
32.99945068359375
  0
LINE
  8
0
  6
CONTINUOUS
 62
     7
 10
196.2501678466797
 20
32.99978256225586
 11
197.6001586914063
 21
31.64978218078613
  0
LINE
  8
0
  6
CONTINUOUS
 62
     7
 10
153.5
 20
31.79998779296875
 11
153.5
 21
9.099990844726563
  0
LINE
  8
0
  6
CONTINUOUS
 62
     7
 10
152
 20
31.79998779296875
 11
153.5
 21
31.79998779296875
  0
LINE
  8
0
  6
CONTINUOUS
 62
     7
 10
154
 20
9.899978637695313
 11
162.4000549316406
 21
9.899978637695313
  0
LINE
  8
0
  6
CONTINUOUS
 62
     7
 10
154.0004119873047
 20
31.79953002929688
 11
153.5004119873047
 21
31.2995491027832
  0
LINE
  8
0
  6
CONTINUOUS
 62
     7
 10
152
 20
31.79998779296875
 11
152
 21
9.099990844726563
  0
LINE
  8
0
  6
CONTINUOUS
 62
     7
 10
150
 20
18.99998474121094
 11
150
 21
9.099990844726563
  0
LINE
  8
0
  6
CONTINUOUS
 62
     7
 10
150
 20
9.099990844726563
 11
153.5
 21
9.099990844726563
  0
LINE
  8
0
  6
CONTINUOUS
 62
     7
 10
152.0001525878906
 20
20.69972229003906
 11
150.0001525878906
 21
18.99972343444824
  0
LINE
  8
0
  6
CONTINUOUS
 62
     7
 10
154
 20
31.79998779296875
 11
162.4000549316406
 21
31.79998779296875
  0
LINE
  8
0
  6
CONTINUOUS
 62
     7
 10
206.5
 20
9.099990844726563
 11
206.5
 21
31.79998779296875
  0
LINE
  8
0
  6
CONTINUOUS
 62
     7
 10
206.5
 20
31.79998779296875
 11
208
 21
31.79998779296875
  0
LINE
  8
0
  6
CONTINUOUS
 62
     7
 10
208
 20
9.099990844726563
 11
208
 21
31.79998779296875
  0
LINE
  8
0
  6
CONTINUOUS
 62
     7
 10
210
 20
9.099990844726563
 11
210
 21
18.99998474121094
  0
LINE
  8
0
  6
CONTINUOUS
 62
     7
 10
206.5
 20
9.099990844726563
 11
210
 21
9.099990844726563
  0
LINE
  8
0
  6
CONTINUOUS
 62
     7
 10
210.0003967285156
 20
18.99960517883301
 11
208.0003051757813
 21
20.69968223571777
  0
LINE
  8
0
  6
CONTINUOUS
 62
     7
 10
70
 20
18
 11
150
 21
18
  0
LINE
  8
0
  6
CONTINUOUS
 62
     7
 10
70
 20
0
 11
290
 21
0
  0
LINE
  8
0
  6
CONTINUOUS
 62
     7
 10
210
 20
18
 11
290
 21
18
  0
LINE
  8
0
  6
CONTINUOUS
 62
     7
 10
154.0003356933594
 20
9.899767875671387
 11
153.5002136230469
 21
10.39988327026367
  0
LINE
  8
0
  6
CONTINUOUS
 62
     7
 10
197.5999450683594
 20
9.899978637695313
 11
206
 21
9.899978637695313
  0
LINE
  8
0
  6
CONTINUOUS
 62
     7
 10
206.5000610351563
 20
31.29989433288574
 11
206.0001068115234
 21
31.79983329772949
  0
LINE
  8
0
  6
CONTINUOUS
 62
     7
 10
197.5999450683594
 20
31.79998779296875
 11
206
 21
31.79998779296875
  0
LINE
  8
0
  6
CONTINUOUS
 62
     7
 10
206.5003509521484
 20
10.39965534210205
 11
206.0003356933594
 21
9.89964771270752
  0
LINE
  8
0
  6
CONTINUOUS
 62
     7
 10
153.5
 20
8.899978637695313
 11
206.5
 21
8.899978637695313
  0
LINE
  8
0
  6
CONTINUOUS
 62
     7
 10
153.5
 20
9.699966430664063
 11
153.5
 21
8.899978637695313
  0
LINE
  8
0
  6
CONTINUOUS
 62
     7
 10
206.5
 20
9.699966430664063
 11
206.5
 21
8.899978637695313
  0
LINE
  8
0
  6
CONTINUOUS
 62
     7
 10
153.5
 20
9.699966430664063
 11
206.4411010742188
 21
9.699966430664063
  0
LINE
  8
0
  6
CENTER
 62
     7
 10
138.800048828125
 20
25.99993896484375
 11
154.728515625
 21
25.99993896484375
  0
LINE
  8
0
  6
CONTINUOUS
 62
     7
 10
150
 20
21.87995910644531
 11
150
 21
30.11991882324219
  0
LINE
  8
0
  6
CONTINUOUS
 62
     7
 10
147
 20
29.99993896484375
 11
150
 21
29.99993896484375
  0
LINE
  8
0
  6
CONTINUOUS
 62
     7
 10
152
 20
30.61993408203125
 11
150.5
 21
30.61993408203125
  0
LINE
  8
0
  6
CONTINUOUS
 62
     7
 10
152
 20
28.3099365234375
 11
150
 21
28.3099365234375
  0
LINE
  8
0
  6
CONTINUOUS
 62
     7
 10
11.50054931640625
 20
1.349505066871643
 11
10.15055561065674
 21
-0.000489461759570986
  0
LINE
  8
0
  6
CONTINUOUS
 62
     7
 10
-11.5
 20
6.06378173828125
 11
-11.5
 21
1.349990844726563
  0
LINE
  8
0
  6
CONTINUOUS
 62
     7
 10
11.5
 20
6.06378173828125
 11
11.5
 21
1.349990844726563
  0
LINE
  8
0
  6
DASHED
 62
     7
 10
-5.5
 20
9
 11
5.5
 21
9
  0
LINE
  8
0
  6
DASHED
 62
     7
 10
-5.5
 20
18
 11
-5.5
 21
9
  0
LINE
  8
0
  6
DASHED
 62
     7
 10
5.5
 20
18
 11
5.5
 21
9
  0
LINE
  8
0
  6
DASHED
 62
     7
 10
-3.5
 20
9
 11
-3.5
 21
0
  0
LINE
  8
0
  6
DASHED
 62
     7
 10
3.500030517578125
 20
9
 11
3.500030517578125
 21
0
  0
LINE
  8
0
  6
CONTINUOUS
 62
     7
 10
152
 20
23.68995666503906
 11
150
 21
23.68995666503906
  0
LINE
  8
0
  6
CONTINUOUS
 62
     7
 10
150.5000305175781
 20
21.37990760803223
 11
150.0000762939453
 21
21.87985420227051
  0
LINE
  8
0
  6
CONTINUOUS
 62
     7
 10
150
 20
30.11985015869141
 11
150.4999847412109
 21
30.61984062194824
  0
LINE
  8
0
  6
CONTINUOUS
 62
     7
 10
148.10009765625
 20
22.49995422363281
 11
142.89990234375
 21
22.49995422363281
  0
LINE
  8
0
  6
CONTINUOUS
 62
     7
 10
148.10009765625
 20
22.45994567871094
 11
148.10009765625
 21
22.49995422363281
  0
LINE
  8
0
  6
CONTINUOUS
 62
     7
 10
148.700439453125
 20
25.99970245361328
 11
147.1004333496094
 21
22.49970626831055
  0
LINE
  8
0
  6
CONTINUOUS
 62
     7
 10
142.900146484375
 20
22.49961090087891
 11
142.5001373291016
 21
23.07964134216309
  0
LINE
  8
0
  6
CONTINUOUS
 62
     7
 10
142.9000091552734
 20
29.49982452392578
 11
142.5
 21
28.91981887817383
  0
LINE
  8
0
  6
CONTINUOUS
 62
     7
 10
148.10009765625
 20
29.49993896484375
 11
142.89990234375
 21
29.49993896484375
  0
LINE
  8
0
  6
CONTINUOUS
 62
     7
 10
148.7001800537109
 20
25.99967384338379
 11
147.1001739501953
 21
29.49968338012695
  0
LINE
  8
0
  6
CONTINUOUS
 62
     7
 10
152
 20
21.37995910644531
 11
150.5
 21
21.37995910644531
  0
LINE
  8
0
  6
CONTINUOUS
 62
     7
 10
147
 20
21.99995422363281
 11
150
 21
21.99995422363281
  0
LINE
  8
0
  6
CONTINUOUS
 62
     7
 10
149.6004943847656
 20
25.99972343444824
 11
148.1004943847656
 21
22.49971961975098
  0
LINE
  8
0
  6
CONTINUOUS
 62
     7
 10
149.6000671386719
 20
25.99963569641113
 11
148.1000823974609
 21
29.49961090087891
  0
LINE
  8
0
  6
CONTINUOUS
 62
     7
 10
10.65012550354004
 20
17.99989891052246
 11
11.5
 21
17.1500244140625
  0
LINE
  8
0
  6
CENTER
 62
     7
 10
-16.60000038146973
 20
9.899978637695313
 11
-16.60000038146973
 21
5.999984741210938
  0
LINE
  8
0
  6
CONTINUOUS
 62
     7
 10
-18.85004997253418
 20
8.899978637695313
 11
-18.78160095214844
 21
7.91761064529419
  0
LINE
  8
0
  6
CONTINUOUS
 62
     7
 10
-14.4182186126709
 20
7.917646408081055
 11
-14.34977245330811
 21
8.899978637695313
  0
LINE
  8
0
  6
CENTER
 62
     7
 10
166.3999938964844
 20
9.899978637695313
 11
166.3999938964844
 21
5.999984741210938
  0
LINE
  8
0
  6
CONTINUOUS
 62
     7
 10
164.1499481201172
 20
8.899978637695313
 11
164.2183990478516
 21
7.91761064529419
  0
LINE
  8
0
  6
CONTINUOUS
 62
     7
 10
168.581787109375
 20
7.917645931243897
 11
168.6502380371094
 21
8.899979591369629
  0
LINE
  8
0
  6
CENTER
 62
     7
 10
193.6000061035156
 20
9.899978637695313
 11
193.6000061035156
 21
5.999984741210938
  0
LINE
  8
0
  6
CENTER
 62
     7
 10
16.60000038146973
 20
9.899978637695313
 11
16.60000038146973
 21
5.999984741210938
  0
LINE
  8
0
  6
CONTINUOUS
 62
     7
 10
-22.00039291381836
 20
31.80002593994141
 11
-23.50035667419434
 21
30.30005073547363
  0
LINE
  8
0
  6
CONTINUOUS
 62
     7
 10
-21.75034332275391
 20
31.80005836486816
 11
-23.25031089782715
 21
30.30008697509766
  0
LINE
  8
0
  6
DASHED
 62
     7
 10
-20.10000038146973
 20
20.99998474121094
 11
-20.10000038146973
 21
32.99998474121094
  0
LINE
  8
0
  6
DASHED
 62
     7
 10
-14.89999961853027
 20
20.99998474121094
 11
-14.89999961853027
 21
32.99998474121094
  0
LINE
  8
0
  6
DASHED
 62
     7
 10
-20.10000038146973
 20
20.99998474121094
 11
-14.89999961853027
 21
20.99998474121094
  0
LINE
  8
0
  6
DASHED
 62
     7
 10
-20.10000038146973
 20
20.99998474121094
 11
-17.5
 21
19.49887466430664
  0
LINE
  8
0
  6
DASHED
 62
     7
 10
-14.90000057220459
 20
20.99998474121094
 11
-17.5
 21
19.49887466430664
  0
LINE
  8
0
  6
DASHED
 62
     7
 10
182.5999908447266
 20
20.99998474121094
 11
182.5999908447266
 21
32.99998474121094
  0
LINE
  8
0
  6
DASHED
 62
     7
 10
182.6000061035156
 20
20.99998664855957
 11
180
 21
19.49887275695801
  0
LINE
  8
0
  6
DASHED
 62
     7
 10
177.3999938964844
 20
23.30786323547363
 11
177.0003356933594
 21
24.00009155273438
  0
LINE
  8
0
  6
DASHED
 62
     7
 10
182.5999908447266
 20
23.30564308166504
 11
183.0006561279297
 21
23.99960899353027
  0
LINE
  8
0
  6
DASHED
 62
     7
 10
177.3999938964844
 20
20.99998474121094
 11
182.5999908447266
 21
20.99998474121094
  0
LINE
  8
0
  6
DASHED
 62
     7
 10
177
 20
23.99998474121094
 11
183
 21
23.99998474121094
  0
LINE
  8
0
  6
DASHED
 62
     7
 10
177.3999938964844
 20
20.99998474121094
 11
177.3999938964844
 21
32.99998474121094
  0
LINE
  8
0
  6
DASHED
 62
     7
 10
177.3999938964844
 20
20.9999885559082
 11
180
 21
19.49887466430664
  0
LINE
  8
0
  6
DASHED
 62
     7
 10
177
 20
23.99998474121094
 11
177
 21
32.99998474121094
  0
LINE
  8
0
  6
DASHED
 62
     7
 10
183
 20
23.99998474121094
 11
183
 21
32.99998474121094
  0
LINE
  8
0
  6
CENTER
 62
     7
 10
180
 20
18.57696533203125
 11
180
 21
33.99998474121094
  0
LINE
  8
0
  6
CONTINUOUS
 62
     7
 10
70
 20
15.73725318908691
 11
150
 21
15.73725318908691
  0
LINE
  8
0
  6
CONTINUOUS
 62
     7
 10
70
 20
6.063875675201416
 11
290
 21
6.063875675201416
  0
LINE
  8
0
  6
CONTINUOUS
 62
     7
 10
70
 20
17.1500244140625
 11
150
 21
17.1500244140625
  0
LINE
  8
0
  6
CONTINUOUS
 62
     7
 10
70
 20
0
 11
70
 21
18
  0
LINE
  8
0
  6
CENTER
 62
     7
 10
90
 20
19
 11
90
 21
-1
  0
LINE
  8
0
  6
DASHED
 62
     7
 10
84.5
 20
9
 11
95.5
 21
9
  0
LINE
  8
0
  6
DASHED
 62
     7
 10
84.5
 20
18
 11
84.5
 21
9
  0
LINE
  8
0
  6
DASHED
 62
     7
 10
95.5
 20
18
 11
95.5
 21
9
  0
LINE
  8
0
  6
DASHED
 62
     7
 10
86.5
 20
9
 11
86.5
 21
0
  0
LINE
  8
0
  6
DASHED
 62
     7
 10
93.50003051757813
 20
9
 11
93.50003051757813
 21
0
  0
LINE
  8
0
  6
CENTER
 62
     7
 10
270
 20
19
 11
270
 21
-1
  0
LINE
  8
0
  6
CONTINUOUS
 62
     7
 10
290
 20
0
 11
290
 21
18
  0
LINE
  8
0
  6
CONTINUOUS
 62
     7
 10
290
 20
15.73725318908691
 11
210
 21
15.73725318908691
  0
LINE
  8
0
  6
CONTINUOUS
 62
     7
 10
290
 20
17.1500244140625
 11
210
 21
17.1500244140625
  0
LINE
  8
0
  6
CONTINUOUS
 62
     7
 10
70
 20
13.67392158508301
 11
150
 21
13.67392158508301
  0
LINE
  8
0
  6
CONTINUOUS
 62
     7
 10
290
 20
13.67392158508301
 11
210
 21
13.67392158508301
  0
LINE
  8
0
  6
CENTER
 62
     7
 10
69
 20
116.9999847412109
 11
291
 21
116.9999847412109
  0
LINE
  8
0
  6
CONTINUOUS
 62
     7
 10
153.5
 20
93.49998474121094
 11
162.4000549316406
 21
93.49998474121094
  0
LINE
  8
0
  6
CONTINUOUS
 62
     7
 10
152
 20
93.74998474121094
 11
153.5
 21
93.74998474121094
  0
LINE
  8
0
  6
CONTINUOUS
 62
     7
 10
70
 20
105.4999847412109
 11
150
 21
105.4999847412109
  0
LINE
  8
0
  6
CONTINUOUS
 62
     7
 10
150
 20
104.4999847412109
 11
152
 21
102.4999847412109
  0
LINE
  8
0
  6
CENTER
 62
     7
 10
180
 20
103.4999847412109
 11
180
 21
95.49998474121094
  0
LINE
  8
0
  6
CENTER
 62
     7
 10
176
 20
99.49998474121094
 11
184
 21
99.49998474121094
  0
LINE
  8
0
  6
CENTER
 62
     7
 10
90
 20
123.4999847412109
 11
90
 21
110.4999847412109
  0
LINE
  8
0
  6
CONTINUOUS
 62
     7
 10
70
 20
109.2793197631836
 11
140.6107635498047
 21
109.2793197631836
  0
LINE
  8
0
  6
CONTINUOUS
 62
     7
 10
70
 20
106.5072708129883
 11
142.8273468017578
 21
106.5072708129883
  0
LINE
  8
0
  6
CONTINUOUS
 62
     7
 10
162.4000549316406
 20
92.99998474121094
 11
162.4000549316406
 21
140.9999847412109
  0
LINE
  8
0
  6
CONTINUOUS
 62
     7
 10
153.5
 20
93.49998474121094
 11
153.5
 21
140.4999847412109
  0
LINE
  8
0
  6
CONTINUOUS
 62
     7
 10
152
 20
93.74998474121094
 11
152
 21
140.2499847412109
  0
LINE
  8
0
  6
CONTINUOUS
 62
     7
 10
150
 20
104.4999847412109
 11
150
 21
112.9999847412109
  0
LINE
  8
0
  6
CONTINUOUS
 62
     7
 10
153.5
 20
140.4999847412109
 11
162.4000549316406
 21
140.4999847412109
  0
LINE
  8
0
  6
CONTINUOUS
 62
     7
 10
152
 20
140.2499847412109
 11
153.5
 21
140.2499847412109
  0
LINE
  8
0
  6
CONTINUOUS
 62
     7
 10
70
 20
124.7206497192383
 11
150
 21
124.7206497192383
  0
LINE
  8
0
  6
CONTINUOUS
 62
     7
 10
70
 20
128.4999847412109
 11
150
 21
128.4999847412109
  0
LINE
  8
0
  6
CONTINUOUS
 62
     7
 10
149.9999847412109
 20
129.4999847412109
 11
152
 21
131.4999847412109
  0
LINE
  8
0
  6
CENTER
 62
     7
 10
176
 20
134.4999847412109
 11
184
 21
134.4999847412109
  0
LINE
  8
0
  6
CENTER
 62
     7
 10
180
 20
130.4999847412109
 11
180
 21
138.4999847412109
  0
LINE
  8
0
  6
CONTINUOUS
 62
     7
 10
70
 20
105.4999847412109
 11
70
 21
128.4999847412109
  0
LINE
  8
0
  6
CONTINUOUS
 62
     7
 10
70
 20
127.4926986694336
 11
150
 21
127.4926986694336
  0
LINE
  8
0
  6
CONTINUOUS
 62
     7
 10
197.5999450683594
 20
92.99998474121094
 11
162.4000549316406
 21
92.99998474121094
  0
LINE
  8
0
  6
CONTINUOUS
 62
     7
 10
206.5
 20
93.49998474121094
 11
197.5999450683594
 21
93.49998474121094
  0
LINE
  8
0
  6
CONTINUOUS
 62
     7
 10
208
 20
93.74998474121094
 11
206.5
 21
93.74998474121094
  0
LINE
  8
0
  6
CONTINUOUS
 62
     7
 10
290
 20
109.2793197631836
 11
210
 21
109.2793197631836
  0
LINE
  8
0
  6
CONTINUOUS
 62
     7
 10
290
 20
105.4999847412109
 11
210
 21
105.4999847412109
  0
LINE
  8
0
  6
CONTINUOUS
 62
     7
 10
197.5999450683594
 20
107.5494384765625
 11
162.4000549316406
 21
107.5494384765625
  0
LINE
  8
0
  6
CONTINUOUS
 62
     7
 10
210.0000152587891
 20
104.4999923706055
 11
208
 21
102.4999923706055
  0
LINE
  8
0
  6
CONTINUOUS
 62
     7
 10
197.5999450683594
 20
92.99998474121094
 11
197.5999450683594
 21
140.9999847412109
  0
LINE
  8
0
  6
CONTINUOUS
 62
     7
 10
290
 20
106.5072708129883
 11
210
 21
106.5072708129883
  0
LINE
  8
0
  6
CENTER
 62
     7
 10
270
 20
123.4999847412109
 11
270
 21
110.4999847412109
  0
LINE
  8
0
  6
CONTINUOUS
 62
     7
 10
206.5
 20
93.49998474121094
 11
206.5
 21
140.4999847412109
  0
LINE
  8
0
  6
CONTINUOUS
 62
     7
 10
208
 20
93.74998474121094
 11
208
 21
140.2499847412109
  0
LINE
  8
0
  6
CONTINUOUS
 62
     7
 10
210
 20
104.4999847412109
 11
210
 21
129.4999847412109
  0
LINE
  8
0
  6
CONTINUOUS
 62
     7
 10
197.5999450683594
 20
140.9999847412109
 11
162.4000549316406
 21
140.9999847412109
  0
LINE
  8
0
  6
CONTINUOUS
 62
     7
 10
206.5
 20
140.4999847412109
 11
197.5999450683594
 21
140.4999847412109
  0
LINE
  8
0
  6
CONTINUOUS
 62
     7
 10
208
 20
140.2499847412109
 11
206.5
 21
140.2499847412109
  0
LINE
  8
0
  6
CONTINUOUS
 62
     7
 10
290
 20
124.7206497192383
 11
210
 21
124.7206497192383
  0
LINE
  8
0
  6
CONTINUOUS
 62
     7
 10
290
 20
128.4999847412109
 11
210
 21
128.4999847412109
  0
LINE
  8
0
  6
CONTINUOUS
 62
     7
 10
197.5999450683594
 20
126.4505310058594
 11
162.4000549316406
 21
126.4505310058594
  0
LINE
  8
0
  6
CONTINUOUS
 62
     7
 10
210
 20
129.4999847412109
 11
208
 21
131.4999847412109
  0
LINE
  8
0
  6
CONTINUOUS
 62
     7
 10
290
 20
105.4999847412109
 11
290
 21
128.4999847412109
  0
LINE
  8
0
  6
CONTINUOUS
 62
     7
 10
290
 20
127.4926986694336
 11
210
 21
127.4926986694336
  0
LINE
  8
0
  6
CENTER
 62
     7
 10
210
 20
123.4999847412109
 11
210
 21
110.4999847412109
  0
LINE
  8
0
  6
CENTER
 62
     7
 10
150
 20
123.4999847412109
 11
150
 21
110.4999847412109
  0
LINE
  8
0
  6
CONTINUOUS
 62
     7
 10
150.0000152587891
 20
112.9999694824219
 11
150.0000152587891
 21
120.9999694824219
  0
LINE
  8
0
  6
CONTINUOUS
 62
     7
 10
146.7001037597656
 20
120.9999847412109
 11
150.0000152587891
 21
120.9999847412109
  0
LINE
  8
0
  6
CONTINUOUS
 62
     7
 10
148.3201293945313
 20
112.9999847412109
 11
150.0000152587891
 21
112.9999847412109
  0
LINE
  8
0
  6
CONTINUOUS
 62
     7
 10
142.7001037597656
 20
116.9999847412109
 11
142.7001037597656
 21
115.3278656005859
  0
LINE
  8
0
  6
CONTINUOUS
 62
     7
 10
150
 20
120.9999847412109
 11
152
 21
120.9999847412109
  0
LINE
  8
0
  6
CONTINUOUS
 62
     7
 10
150
 20
112.9999847412109
 11
152
 21
112.9999847412109
  0
LINE
  8
0
  6
CENTER
 62
     7
 10
142.2518615722656
 20
105.4778671264648
 11
147.1171569824219
 21
117.2237548828125
  0
LINE
  8
0
  6
CONTINUOUS
 62
     7
 10
140.4827880859375
 20
107.4784317016602
 11
144.9174041748047
 21
105.6415481567383
  0
LINE
  8
0
  6
CONTINUOUS
 62
     7
 10
140.6845397949219
 20
110.3173294067383
 11
146.7821350097656
 21
107.791618347168
  0
LINE
  8
0
  6
CONTINUOUS
 62
     7
 10
140.4827728271484
 20
107.4784317016602
 11
140.6845397949219
 21
110.3173217773438
  0
LINE
  8
0
  6
CONTINUOUS
 62
     7
 10
144.9174041748047
 20
105.6415405273438
 11
146.7821502685547
 21
107.791618347168
  0
LINE
  8
0
  6
CONTINUOUS
 62
     7
 10
141.4232635498047
 20
114.0381851196289
 11
141.8379364013672
 21
115.0392532348633
  0
LINE
  8
0
  6
CONTINUOUS
 62
     7
 10
148.8908538818359
 20
110.9449920654297
 11
149.3055114746094
 21
111.9460525512695
  0
LINE
  8
0
  6
CONTINUOUS
 62
     7
 10
142.6173553466797
 20
115.3620681762695
 11
141.8379211425781
 21
115.0392150878906
  0
LINE
  8
0
  6
CONTINUOUS
 62
     7
 10
143.0605621337891
 20
112.7105865478516
 11
143.9331359863281
 21
114.8171539306641
  0
LINE
  8
0
  6
CONTINUOUS
 62
     7
 10
146.7943267822266
 20
111.1639862060547
 11
147.6669006347656
 21
113.2705612182617
  0
LINE
  8
0
  6
CONTINUOUS
 62
     7
 10
142.6173706054688
 20
115.3621444702148
 11
148.9826812744141
 21
112.7255554199219
  0
LINE
  8
0
  6
CONTINUOUS
 62
     7
 10
149.3055267333984
 20
111.946044921875
 11
148.982666015625
 21
112.7254943847656
  0
LINE
  8
0
  6
CONTINUOUS
 62
     7
 10
141.8148193359375
 20
111.7394638061523
 11
146.988525390625
 21
109.5964279174805
  0
LINE
  8
0
  6
CONTINUOUS
 62
     7
 10
147.0256805419922
 20
109.2793197631836
 11
150
 21
109.2793197631836
  0
LINE
  8
0
  6
CONTINUOUS
 62
     7
 10
145.6682434082031
 20
106.5072708129883
 11
150
 21
106.5072708129883
  0
LINE
  8
0
  6
CONTINUOUS
 62
     7
 10
150
 20
120.9999847412109
 11
150
 21
129.4999847412109
  0
LINE
  8
0
  6
CONTINUOUS
 62
     7
 10
141.6530456542969
 20
113.293586730957
 11
148.2018432617188
 21
110.5809860229492
  0
LINE
  8
0
  6
CENTER
 62
     7
 10
150
 20
19
 11
150
 21
-1
  0
LINE
  8
0
  6
CENTER
 62
     7
 10
210
 20
19
 11
210
 21
-1
  0
ARC
  8
0
  6
CONTINUOUS
 62
     7
 10
147
 20
26.00003051757813
 40
3.999999999999998
 50
89.99998201391055
 51
118.4958044387708
  0
ARC
  8
0
  6
CONTINUOUS
 62
     7
 10
147
 20
26.00003051757813
 40
3.982465744018556
 50
241.5040862782025
 51
269.9999087030627
  0
ARC
  8
0
  6
CONTINUOUS
 62
     7
 10
12.36572265625
 20
13.86799621582031
 40
2.059999465942384
 50
114.8437842518349
 51
185.366470979457
  0
ARC
  8
0
  6
CONTINUOUS
 62
     7
 10
9.106689453125
 20
19.52398681640625
 40
2.059999465942383
 50
227.714863249674
 51
312.2851214960859
  0
ARC
  8
0
  6
CONTINUOUS
 62
     7
 10
-8.680908203125
 20
8.846023559570313
 40
0.9999999999999996
 50
300.0000119907263
 51
30.00000083482606
  0
ARC
  8
0
  6
CONTINUOUS
 62
     7
 10
8.68115234375
 20
8.846023559570313
 40
0.9999999999999994
 50
149.9999700231845
 51
239.9999520370951
  0
ARC
  8
0
  6
CONTINUOUS
 62
     7
 10
-9.1064453125
 20
19.52398681640625
 40
2.059999465942383
 50
227.714863249674
 51
312.2851214960859
  0
ARC
  8
0
  6
CONTINUOUS
 62
     7
 10
9.10009765625
 20
21.22998046875
 40
1.059999465942384
 50
210.0000299768156
 51
329.9999718444173
  0
ARC
  8
0
  6
CONTINUOUS
 62
     7
 10
-12.365478515625
 20
13.86799621582031
 40
2.059999465942383
 50
354.6335511049722
 51
65.15623441749976
  0
ARC
  8
0
  6
CONTINUOUS
 62
     7
 10
7.610107421875
 20
23.70997619628906
 40
0.9683421850204466
 50
215.3314570768741
 51
278.2972225067941
  0
ARC
  8
0
  6
CONTINUOUS
 62
     7
 10
6.6201171875
 20
30.07998657226563
 40
1.254199028015136
 50
217.8749648822735
 51
279.2353626496737
  0
ARC
  8
0
  6
CONTINUOUS
 62
     7
 10
6.6201171875
 20
21.91998291015625
 40
1.246148109436035
 50
80.76452806729958
 51
142.1250351177266
  0
ARC
  8
0
  6
CONTINUOUS
 62
     7
 10
7.610107421875
 20
28.28997802734375
 40
0.9701611399650563
 50
81.7028867762326
 51
144.668542923126
  0
ARC
  8
0
  6
CONTINUOUS
 62
     7
 10
13.521240234375
 20
12.0640869140625
 40
1.000000000000001
 50
150.0000246646978
 51
239.9998973955817
  0
ARC
  8
0
  6
CONTINUOUS
 62
     7
 10
0
 20
25.99998474121094
 40
3.998106002807619
 50
61.09402038976974
 51
298.9059076658729
  0
ARC
  8
0
  6
CONTINUOUS
 62
     7
 10
0
 20
25.99998474121094
 40
4
 50
240.0000239814524
 51
241.0449882829511
  0
ARC
  8
0
  6
CONTINUOUS
 62
     7
 10
9.33154296875
 20
10.77253723144531
 40
0.5999999642372128
 50
150.0000246646979
 51
234.6942064483157
  0
ARC
  8
0
  6
CONTINUOUS
 62
     7
 10
13.10009765625
 20
9.699981689453125
 40
0.7999999523162841
 50
228.5898378031094
 51
270.0000179860894
  0
ARC
  8
0
  6
CONTINUOUS
 62
     7
 10
-9.099853515625
 20
21.22998046875
 40
1.059999465942384
 50
210.0000299768156
 51
329.9999718444173
  0
ARC
  8
0
  6
CONTINUOUS
 62
     7
 10
-9.331298828125
 20
10.77253723144531
 40
0.5999999642372124
 50
305.3057951455459
 51
29.99997351406932
  0
ARC
  8
0
  6
CONTINUOUS
 62
     7
 10
-13.52099609375
 20
12.0640869140625
 40
0.9999999999999991
 50
300.0001212737529
 51
29.99997351406931
  0
ARC
  8
0
  6
CONTINUOUS
 62
     7
 10
-13.099853515625
 20
9.699981689453125
 40
0.7999999523162845
 50
270.0000179860894
 51
311.4101640181236
  0
ARC
  8
0
  6
CONTINUOUS
 62
     7
 10
-16.60000038146973
 20
12.99998474121094
 40
6.000000000000001
 50
254.557342763284
 51
285.4426932088946
  0
ARC
  8
0
  6
CONTINUOUS
 62
     7
 10
-15.21523475646973
 20
7.987533569335938
 40
0.7999999523162841
 50
285.4426932088946
 51
355.0000044143218
  0
ARC
  8
0
  6
CONTINUOUS
 62
     7
 10
-17.98427772521973
 20
7.987533569335938
 40
0.7999999523162842
 50
185.0000076521948
 51
254.5573427632839
  0
ARC
  8
0
  6
CONTINUOUS
 62
     7
 10
166.3999938964844
 20
12.99998474121094
 40
5.999999999999999
 50
254.557342763284
 51
285.4426932088946
  0
ARC
  8
0
  6
CONTINUOUS
 62
     7
 10
167.7847595214844
 20
7.987533569335938
 40
0.7999999523162812
 50
285.4426932088939
 51
355.0000044143219
  0
ARC
  8
0
  6
CONTINUOUS
 62
     7
 10
165.0157165527344
 20
7.987533569335938
 40
0.7999999523162842
 50
185.0000076521948
 51
254.5573427632844
  0
CIRCLE
  8
0
  6
CONTINUOUS
 62
     7
 10
180
 20
99.49998474121094
 40
2.599998474121094
  0
CIRCLE
  8
0
  6
CONTINUOUS
 62
     7
 10
180
 20
99.49998474121094
 40
3
  0
CIRCLE
  8
0
  6
CONTINUOUS
 62
     7
 10
90
 20
116.9999847412109
 40
3.5
  0
CIRCLE
  8
0
  6
CONTINUOUS
 62
     7
 10
90
 20
116.9999847412109
 40
5.5
  0
ARC
  8
0
  6
CONTINUOUS
 62
     7
 10
143.7333374023438
 20
109.0544586181641
 40
3.299999237060557
 50
131.5803705110075
 51
157.4999548639651
  0
ARC
  8
0
  6
CONTINUOUS
 62
     7
 10
143.7333374023438
 20
109.0544586181641
 40
3.29999923706055
 50
337.5000181569006
 51
3.419602296415186
  0
ARC
  8
0
  6
CONTINUOUS
 62
     7
 10
135.8170013427734
 20
111.9005584716797
 40
6.00000000000001
 50
2.43365082934552
 51
20.87173987704913
  0
ARC
  8
0
  6
CONTINUOUS
 62
     7
 10
151.3435363769531
 20
105.4692535400391
 40
6.000000000000011
 50
114.1278165022775
 51
132.5663219780771
  0
ARC
  8
0
  6
CONTINUOUS
 62
     7
 10
141.0122985839844
 20
112.1213531494141
 40
0.7999999523162822
 50
311.5798327472963
 51
2.433049772698627
  0
ARC
  8
0
  6
CONTINUOUS
 62
     7
 10
147.8260192871094
 20
109.2990112304688
 40
0.7999999523162747
 50
132.5669776762372
 51
183.4201402735702
  0
ARC
  8
0
  6
CONTINUOUS
 62
     7
 10
146.7001037597656
 20
116.9999847412109
 40
3.999999999999998
 50
89.99998201391055
 51
180.0000186693347
  0
POLYLINE
  8
0
  6
CONTINUOUS
 62
     7
 66
     1
 10
0
 20
0
  0
VERTEX
  8
0
  6
CONTINUOUS
 62
     7
 10
143.800048828125
 20
29.25003051757813
 42
0.01434915806625082
  0
VERTEX
  8
0
  6
CONTINUOUS
 62
     7
 10
143.6411678160301
 20
29.24546873490361
 42
0.01426049202248397
  0
VERTEX
  8
0
  6
CONTINUOUS
 62
     7
 10
143.4835568244477
 20
29.23189264684225
 42
0.01417560169315017
  0
VERTEX
  8
0
  6
CONTINUOUS
 62
     7
 10
143.3274578446994
 20
29.20944929166182
 42
0.01415078602952987
  0
VERTEX
  8
0
  6
CONTINUOUS
 62
     7
 10
143.1724957853715
 20
29.1781253914154
 42
0.01410149195531277
  0
VERTEX
  8
0
  6
CONTINUOUS
 62
     7
 10
143.0192339118183
 20
29.13801723414478
 42
0.01402948393032032
  0
VERTEX
  8
0
  6
CONTINUOUS
 62
     7
 10
142.8682172047789
 20
29.08927264611039
 42
0.01393690122802577
  0
VERTEX
  8
0
  6
CONTINUOUS
 62
     7
 10
142.7199668809836
 20
29.03208677842771
 42
0.01382618076801578
  0
VERTEX
  8
0
  6
CONTINUOUS
 62
     7
 10
142.5749757736561
 20
28.96669711679957
 42
0.01369997248049153
  0
VERTEX
  8
0
  6
CONTINUOUS
 62
     7
 10
142.4337046902209
 20
28.89337793187587
 42
0.0135610526643949
  0
VERTEX
  8
0
  6
CONTINUOUS
 62
     7
 10
142.2965798111518
 20
28.81243440444731
 42
0.01332232110818353
  0
VERTEX
  8
0
  6
CONTINUOUS
 62
     7
 10
142.1648696137767
 20
28.72481560607531
 42
0.01328775540076848
  0
VERTEX
  8
0
  6
CONTINUOUS
 62
     7
 10
142.0368485173775
 20
28.6294520438397
 42
0.01315481343225778
  0
VERTEX
  8
0
  6
CONTINUOUS
 62
     7
 10
141.9137961330787
 20
28.52724636765176
 42
0.01293827020915276
  0
VERTEX
  8
0
  6
CONTINUOUS
 62
     7
 10
141.7967518630973
 20
28.41923183097361
 42
0.01278028751380905
  0
VERTEX
  8
0
  6
CONTINUOUS
 62
     7
 10
141.6854154327849
 20
28.30534267551633
 42
0.01262528647015473
  0
VERTEX
  8
0
  6
CONTINUOUS
 62
     7
 10
141.580005963823
 20
28.18594546505733
 42
0
  0
SEQEND
  8
0
  0
POLYLINE
  8
0
  6
CONTINUOUS
 62
     7
 66
     1
 10
0
 20
0
  0
VERTEX
  8
0
  6
CONTINUOUS
 62
     7
 10
6.820068359375
 20
28.84996032714844
 42
0.1885789354395878
  0
VERTEX
  8
0
  6
CONTINUOUS
 62
     7
 10
6.460340646671255
 20
28.69026946488619
 42
0.07574244361845793
  0
VERTEX
  8
0
  6
CONTINUOUS
 62
     7
 10
6.216109078558669
 20
28.37243201624564
 42
0.03933441130898834
  0
VERTEX
  8
0
  6
CONTINUOUS
 62
     7
 10
6.046247817523368
 20
28.00709939669054
 42
0.02577022612805675
  0
VERTEX
  8
0
  6
CONTINUOUS
 62
     7
 10
5.924091743984418
 20
27.62295035800274
 42
0.0195044482801611
  0
VERTEX
  8
0
  6
CONTINUOUS
 62
     7
 10
5.836597916854423
 20
27.2287403653148
 42
0.01621398503864962
  0
VERTEX
  8
0
  6
CONTINUOUS
 62
     7
 10
5.777233499820523
 20
26.82915111147701
 42
0.01446599208444636
  0
VERTEX
  8
0
  6
CONTINUOUS
 62
     7
 10
5.742360581290933
 20
26.4266279631457
 42
0.013690762407594
  0
VERTEX
  8
0
  6
CONTINUOUS
 62
     7
 10
5.730106323576757
 20
26.02248506559032
 42
0.01360566335296786
  0
VERTEX
  8
0
  6
CONTINUOUS
 62
     7
 10
5.739824367267719
 20
25.61964101392962
 42
0.01431483577562925
  0
VERTEX
  8
0
  6
CONTINUOUS
 62
     7
 10
5.771975711061605
 20
25.2173908748767
 42
0.01598134685396237
  0
VERTEX
  8
0
  6
CONTINUOUS
 62
     7
 10
5.828487562983153
 20
24.81657412497144
 42
0.01902611244824396
  0
VERTEX
  8
0
  6
CONTINUOUS
 62
     7
 10
5.912549178179487
 20
24.42142185348675
 42
0.02487889210569255
  0
VERTEX
  8
0
  6
CONTINUOUS
 62
     7
 10
6.030563588864921
 20
24.03502654830077
 42
0.03729480303975538
  0
VERTEX
  8
0
  6
CONTINUOUS
 62
     7
 10
6.194635633313295
 20
23.66584298695959
 42
0.06998072190941373
  0
VERTEX
  8
0
  6
CONTINUOUS
 62
     7
 10
6.430216112886584
 20
23.33851002634552
 42
0.1738226602511976
  0
VERTEX
  8
0
  6
CONTINUOUS
 62
     7
 10
6.779979201797493
 20
23.15190671174687
 42
0
  0
SEQEND
  8
0
  0
POLYLINE
  8
0
  6
CONTINUOUS
 62
     7
 66
     1
 10
0
 20
0
 70
     1
  0
VERTEX
  8
0
  6
CONTINUOUS
 62
     7
 10
10.52001953125
 20
28.49998474121094
 42
0.255160528148053
  0
VERTEX
  8
0
  6
CONTINUOUS
 62
     7
 10
9.990202750479739
 20
28.07510308865343
 42
0.06319271445579344
  0
VERTEX
  8
0
  6
CONTINUOUS
 62
     7
 10
9.736102618308747
 20
27.41221683626699
 42
0.03518703029839516
  0
VERTEX
  8
0
  6
CONTINUOUS
 62
     7
 10
9.609370472692843
 20
26.71216599005845
 42
0.02798589179771518
  0
VERTEX
  8
0
  6
CONTINUOUS
 62
     7
 10
9.57000732421875
 20
25.99998474121094
 42
0.02790009419003748
  0
VERTEX
  8
0
  6
CONTINUOUS
 62
     7
 10
9.609141740132959
 20
25.28983573137625
 42
0.03516093888086638
  0
VERTEX
  8
0
  6
CONTINUOUS
 62
     7
 10
9.735638526659862
 20
24.58954421388883
 42
0.0631567928924706
  0
VERTEX
  8
0
  6
CONTINUOUS
 62
     7
 10
9.98967590271929
 20
23.92580448719692
 42
0.2552812160364112
  0
VERTEX
  8
0
  6
CONTINUOUS
 62
     7
 10
10.52001953125
 20
23.49998474121094
 42
0.2551559578744058
  0
VERTEX
  8
0
  6
CONTINUOUS
 62
     7
 10
11.04983493541096
 20
23.92486993124099
 42
0.06319253877387417
  0
VERTEX
  8
0
  6
CONTINUOUS
 62
     7
 10
11.30393573583335
 20
24.58775595634508
 42
0.03518717651548168
  0
VERTEX
  8
0
  6
CONTINUOUS
 62
     7
 10
11.43066852454271
 20
25.28780669155798
 42
0.02798603583736561
  0
VERTEX
  8
0
  6
CONTINUOUS
 62
     7
 10
11.47003173828125
 20
25.99998474121094
 42
0.02789900851438676
  0
VERTEX
  8
0
  6
CONTINUOUS
 62
     7
 10
11.43089016769575
 20
26.71013338220339
 42
0.03515957623320971
  0
VERTEX
  8
0
  6
CONTINUOUS
 62
     7
 10
11.30438968761925
 20
27.41042428581613
 42
0.06315466501142848
  0
VERTEX
  8
0
  6
CONTINUOUS
 62
     7
 10
11.05035327340711
 20
28.07416455411414
 42
0.2552827079446364
  0
SEQEND
  8
0
  0
POLYLINE
  8
0
  6
CONTINUOUS
 62
     7
 66
     1
 10
0
 20
0
  0
VERTEX
  8
0
  6
CONTINUOUS
 62
     7
 10
141.5759804854074
 20
23.81891067339516
 42
0.06283239181390984
  0
VERTEX
  8
0
  6
CONTINUOUS
 62
     7
 10
142.1402796718764
 20
23.29273875294225
 42
0.06649755693985934
  0
VERTEX
  8
0
  6
CONTINUOUS
 62
     7
 10
142.8202810060337
 20
22.92823569133627
 42
0.06915606738095696
  0
VERTEX
  8
0
  6
CONTINUOUS
 62
     7
 10
143.5726365256834
 20
22.75938053208386
 42
0.06975032619515212
  0
VERTEX
  8
0
  6
CONTINUOUS
 62
     7
 10
144.3413917455406
 20
22.80337809427584
 42
0.06816399809933056
  0
VERTEX
  8
0
  6
CONTINUOUS
 62
     7
 10
145.0692356470314
 20
23.05519853252114
 42
0.06499630697083547
  0
VERTEX
  8
0
  6
CONTINUOUS
 62
     7
 10
145.70580130909
 20
23.49003018840011
 42
0.06129110091232173
  0
VERTEX
  8
0
  6
CONTINUOUS
 62
     7
 10
146.2138579711672
 20
24.07013207229521
 42
0.05807955825078398
  0
VERTEX
  8
0
  6
CONTINUOUS
 62
     7
 10
146.570853847124
 20
24.75412681127778
 42
0.0559050953013504
  0
VERTEX
  8
0
  6
CONTINUOUS
 62
     7
 10
146.764511654005
 20
25.50127113009525
 42
0.05496342096667269
  0
VERTEX
  8
0
  6
CONTINUOUS
 62
     7
 10
146.7895266131032
 20
26.2719937780886
 42
0.05547383021873219
  0
VERTEX
  8
0
  6
CONTINUOUS
 62
     7
 10
146.6454480129432
 20
27.02988327329391
 42
0.05728038420338561
  0
VERTEX
  8
0
  6
CONTINUOUS
 62
     7
 10
146.3360388342122
 20
27.73632529951642
 42
0.0602682850948288
  0
VERTEX
  8
0
  6
CONTINUOUS
 62
     7
 10
145.8708002567846
 20
28.35163480248928
 42
0.06395245250362193
  0
VERTEX
  8
0
  6
CONTINUOUS
 62
     7
 10
145.2685940452836
 20
28.83401381989163
 42
0.06744497260069834
  0
VERTEX
  8
0
  6
CONTINUOUS
 62
     7
 10
144.5619367829633
 20
29.14347613035189
 42
0.06944158426832957
  0
VERTEX
  8
0
  6
CONTINUOUS
 62
     7
 10
143.800048828125
 20
29.25003051757813
 42
0
  0
SEQEND
  8
0
  0
POLYLINE
  8
0
  6
CONTINUOUS
 62
     7
 66
     1
 10
0
 20
0
 70
     1
  0
VERTEX
  8
0
  6
CONTINUOUS
 62
     7
 10
142.7001953125
 20
28.50003051757813
 42
0.1103764944184997
  0
VERTEX
  8
0
  6
CONTINUOUS
 62
     7
 10
141.788042850441
 20
28.29500433630388
 42
0.1025037581037598
  0
VERTEX
  8
0
  6
CONTINUOUS
 62
     7
 10
141.0407122749568
 20
27.73099556902766
 42
0.09328850764984485
  0
VERTEX
  8
0
  6
CONTINUOUS
 62
     7
 10
140.563104279619
 20
26.92410786559342
 42
0.08782093042536104
  0
VERTEX
  8
0
  6
CONTINUOUS
 62
     7
 10
140.4002075195313
 20
26.00001525878907
 42
0.08777044084587658
  0
VERTEX
  8
0
  6
CONTINUOUS
 62
     7
 10
140.5629245833548
 20
25.07639771918612
 42
0.09326105345434148
  0
VERTEX
  8
0
  6
CONTINUOUS
 62
     7
 10
141.0402097409462
 20
24.26958757264977
 42
0.1026339323149705
  0
VERTEX
  8
0
  6
CONTINUOUS
 62
     7
 10
141.7884102413588
 20
23.70485292021431
 42
0.1103353410567375
  0
VERTEX
  8
0
  6
CONTINUOUS
 62
     7
 10
142.7001953125
 20
23.50003051757813
 42
0.1103785585011844
  0
VERTEX
  8
0
  6
CONTINUOUS
 62
     7
 10
143.612349400598
 20
23.70504789474007
 42
0.1025055465468917
  0
VERTEX
  8
0
  6
CONTINUOUS
 62
     7
 10
144.3596805843489
 20
24.26905544284841
 42
0.09328870326277007
  0
VERTEX
  8
0
  6
CONTINUOUS
 62
     7
 10
144.8372864161887
 20
25.07594432204814
 42
0.08782030841183393
  0
VERTEX
  8
0
  6
CONTINUOUS
 62
     7
 10
145.0001831054688
 20
26.00004577636719
 42
0.08777115601887935
  0
VERTEX
  8
0
  6
CONTINUOUS
 62
     7
 10
144.8374645496144
 20
26.92366292893125
 42
0.0932609906074806
  0
VERTEX
  8
0
  6
CONTINUOUS
 62
     7
 10
144.360177005134
 20
27.73047163569267
 42
0.1026330843962515
  0
VERTEX
  8
0
  6
CONTINUOUS
 62
     7
 10
143.611975804485
 20
28.2952055050912
 42
0.1103338256201406
  0
SEQEND
  8
0
  0
TEXT
  8
0
  6
CONTINUOUS
 62
     7
 10
-11.28550004959106
 20
-31.79999995231628
 40
3.599999904632568
 41
0.8463235853572091
  1
ＳＲ２５Ｍ１Ｖ
  0
ENDSEC
  0
EOF
