  0
SECTION
  2
HEADER
  0
ENDSEC
  0
SECTION
  2
TABLES
  0
TABLE
  2
LTYPE
 70
    22
  0
LTYPE
  2
CONTINUOUS
 70
    64
  3
Solid line
 72
    65
 73
     0
 40
0.000000
  0
LTYPE
  2
DASHED
 70
    64
  3
__ __ __ __ __ __ __ __ __ __ __ __ __ __ __
 72
    65
 73
     2
 40
3.500000
 49
2.000000
 49
-1.500000
  0
LTYPE
  2
CENTER
 70
    64
  3
____ _ ____ _ ____ _ ____ _ ____ _ ____ _ ____
 72
    65
 73
     4
 40
17.500000
 49
13.000000
 49
-1.500000
 49
1.500000
 49
-1.500000
  0
LTYPE
  2
PHANTOM
 70
    64
  3
_____ _ _ _____ _ _ _____ _ _ _____ _ _ ____  
 72
    65
 73
     6
 40
15.500000
 49
8.000000
 49
-1.500000
 49
1.500000
 49
-1.500000
 49
1.500000
 49
-1.500000
  0
LTYPE
  2
DOT
 70
    64
  3
. . . . . . . . . . . . . . . . . . . . . . . .
 72
    65
 73
     2
 40
0.25
 49
0.0
 49
-0.25
  0
ENDTAB
  0
TABLE
  2
LAYER
 70
     1
  0
LAYER
  2
0
 70
     0
 62
     7
  6
CONTINUOUS
  0
ENDTAB
  0
TABLE
  2
STYLE
 70
     1
  0
STYLE
  2
STANDARD
 70
     0
 40
0.000000
 41
1.000000
 50
0.000000
 71
     0
 42
0.200000
  3
txt
  0
ENDTAB
  0
TABLE
  2
VIEW
 70
     0
  0
ENDTAB
  0
ENDSEC
  0
SECTION
  2
BLOCKS
  0
ENDSEC
  0
SECTION
  2
ENTITIES
  0
LINE
  8
0
  6
CONTINUOUS
 62
     7
 10
-4
 20
41.80938720703125
 11
-4
 21
37.179443359375
  0
LINE
  8
0
  6
CONTINUOUS
 62
     7
 10
-28.384765625
 20
13.29998779296875
 11
-18.384765625
 21
13.29998779296875
  0
LINE
  8
0
  6
CONTINUOUS
 62
     7
 10
-28.384765625
 20
13.5
 11
-28.384765625
 21
13.29998779296875
  0
LINE
  8
0
  6
CONTINUOUS
 62
     7
 10
-3.999394655227661
 20
41.80846405029297
 11
-0.006131506990641356
 21
44.11397552490234
  0
LINE
  8
0
  6
CONTINUOUS
 62
     7
 10
-3.999361753463745
 20
37.17922592163086
 11
-0.001923550851643086
 21
34.88181686401367
  0
LINE
  8
0
  6
CONTINUOUS
 62
     7
 10
-33.25
 20
14.69999694824219
 11
-33.2001953125
 21
14.69999694824219
  0
LINE
  8
0
  6
CONTINUOUS
 62
     7
 10
-33.24970245361328
 20
14.69995975494385
 11
-34.2497673034668
 21
15.70002269744873
  0
LINE
  8
0
  6
CONTINUOUS
 62
     7
 10
-34.25
 20
15.69999694824219
 11
-34.25
 21
45.0002555847168
  0
LINE
  8
0
  6
CONTINUOUS
 62
     7
 10
-14.73438262939453
 20
13.49864768981934
 11
-12.20523357391357
 21
14.95885276794434
  0
LINE
  8
0
  6
CONTINUOUS
 62
     7
 10
-20.73422050476074
 20
13.49870491027832
 11
-16.30366325378418
 21
16.05668830871582
  0
LINE
  8
0
  6
CONTINUOUS
 62
     7
 10
-15.93774032592773
 20
17.42451477050781
 11
-19.59946823120117
 21
23.76681327819824
  0
LINE
  8
0
  6
CONTINUOUS
 62
     7
 10
-19.60009765625
 20
27.54261779785156
 11
-19.60009765625
 21
23.76640319824219
  0
LINE
  8
0
  6
CONTINUOUS
 62
     7
 10
-16.94133567810059
 20
30.19847297668457
 11
-19.59866714477539
 21
27.54111099243164
  0
LINE
  8
0
  6
CONTINUOUS
 62
     7
 10
-16.94287109375
 20
30.19999694824219
 11
-14.5
 21
30.19999694824219
  0
LINE
  8
0
  6
CONTINUOUS
 62
     7
 10
-32
 20
13.5
 11
-14.735107421875
 21
13.5
  0
LINE
  8
0
  6
CONTINUOUS
 62
     7
 10
-31.99986457824707
 20
13.49987697601318
 11
-33.99982833862305
 21
15.49983215332031
  0
LINE
  8
0
  6
CONTINUOUS
 62
     7
 10
-34
 20
15.5
 11
-34
 21
44.50093460083008
  0
LINE
  8
0
  6
CONTINUOUS
 62
     7
 10
18.384765625
 20
13.29998779296875
 11
28.384765625
 21
13.29998779296875
  0
LINE
  8
0
  6
CONTINUOUS
 62
     7
 10
28.384765625
 20
13.29998779296875
 11
28.384765625
 21
13.5
  0
LINE
  8
0
  6
CONTINUOUS
 62
     7
 10
17.00007629394531
 20
9.845619201660156
 11
11.53625106811523
 21
13.00015830993652
  0
LINE
  8
0
  6
CONTINUOUS
 62
     7
 10
0.00686672143638134
 20
44.115234375
 11
1.93808650970459
 21
43.000244140625
  0
LINE
  8
0
  6
CONTINUOUS
 62
     7
 10
5.95200252532959
 20
42.52027130126953
 11
5.861997604370117
 21
43.00024795532227
  0
LINE
  8
0
  6
CONTINUOUS
 62
     7
 10
3.440954685211182
 20
39.49974822998047
 11
4.090963363647461
 21
42.9997444152832
  0
LINE
  8
0
  6
CONTINUOUS
 62
     7
 10
1.130418419837952
 20
39.49982070922852
 11
1.780409455299377
 21
42.99980545043945
  0
LINE
  8
0
  6
CONTINUOUS
 62
     7
 10
1.780029296875
 20
43
 11
5.860107421875
 21
43
  0
LINE
  8
0
  6
CONTINUOUS
 62
     7
 10
-32.750244140625
 20
46.5
 11
32.75
 21
46.5
  0
LINE
  8
0
  6
CONTINUOUS
 62
     7
 10
-17
 20
23.94077491760254
 11
-17
 21
26.29874229431152
  0
LINE
  8
0
  6
CONTINUOUS
 62
     7
 10
0.002663648454472423
 20
34.88159561157227
 11
1.947961807250977
 21
35.99959564208984
  0
LINE
  8
0
  6
CONTINUOUS
 62
     7
 10
7.750438690185547
 20
42.74987030029297
 11
10.5203332901001
 21
41.99990081787109
  0
LINE
  8
0
  6
CONTINUOUS
 62
     7
 10
7.766562461853027
 20
36.25391387939453
 11
10.520432472229
 21
36.99954605102539
  0
LINE
  8
0
  6
CONTINUOUS
 62
     7
 10
5.951336860656738
 20
36.46974182128906
 11
5.861324787139893
 21
35.99974060058594
  0
LINE
  8
0
  6
CONTINUOUS
 62
     7
 10
3.441007614135742
 20
39.50010299682617
 11
4.09102725982666
 21
36.00004577636719
  0
LINE
  8
0
  6
CONTINUOUS
 62
     7
 10
1.130601763725281
 20
39.50012969970703
 11
1.780601143836975
 21
36.00009918212891
  0
LINE
  8
0
  6
CONTINUOUS
 62
     7
 10
1.780029296875
 20
36
 11
5.860107421875
 21
36
  0
LINE
  8
0
  6
CENTER
 62
     7
 10
-5.807861328125
 20
39.5
 11
13.31005859375
 21
39.5
  0
LINE
  8
0
  6
CONTINUOUS
 62
     7
 10
33.2001953125
 20
14.69999694824219
 11
33.25
 21
14.69999694824219
  0
LINE
  8
0
  6
CONTINUOUS
 62
     7
 10
34.25053405761719
 20
15.69962120056152
 11
33.25050735473633
 21
14.69960117340088
  0
LINE
  8
0
  6
CONTINUOUS
 62
     7
 10
34.25042343139648
 20
44.99983215332031
 11
32.75040435791016
 21
46.49983978271484
  0
LINE
  8
0
  6
CONTINUOUS
 62
     7
 10
34.25
 20
45
 11
34.25
 21
15.69999694824219
  0
LINE
  8
0
  6
CONTINUOUS
 62
     7
 10
28.385009765625
 20
13.29998779296875
 11
28.385009765625
 21
13.5
  0
LINE
  8
0
  6
DASHED
 62
     7
 10
4.5
 20
15.5
 11
4.5
 21
0.5999908447265625
  0
LINE
  8
0
  6
DASHED
 62
     7
 10
-7
 20
15.5
 11
7
 21
15.5
  0
LINE
  8
0
  6
DASHED
 62
     7
 10
-4.5
 20
15.5
 11
-4.5
 21
0.5999755859375
  0
LINE
  8
0
  6
DASHED
 62
     7
 10
7
 20
27.5
 11
7
 21
15.5
  0
LINE
  8
0
  6
DASHED
 62
     7
 10
-7
 20
27.5
 11
-7
 21
15.5
  0
LINE
  8
0
  6
CENTER
 62
     7
 10
0
 20
49
 11
0
 21
-1
  0
LINE
  8
0
  6
CONTINUOUS
 62
     7
 10
12.20650291442871
 20
14.96062850952148
 11
14.73565292358398
 21
13.50042343139648
  0
LINE
  8
0
  6
CONTINUOUS
 62
     7
 10
16.30485153198242
 20
16.05856513977051
 11
20.73540878295898
 21
13.50058174133301
  0
LINE
  8
0
  6
CONTINUOUS
 62
     7
 10
19.6014404296875
 20
23.76570129394531
 11
15.93971347808838
 21
17.42340278625488
  0
LINE
  8
0
  6
CONTINUOUS
 62
     7
 10
19.60009765625
 20
23.76640319824219
 11
19.60009765625
 21
27.54261779785156
  0
LINE
  8
0
  6
CONTINUOUS
 62
     7
 10
19.60068321228027
 20
27.54315185546875
 11
16.94334983825684
 21
30.20051383972168
  0
LINE
  8
0
  6
CONTINUOUS
 62
     7
 10
14.5
 20
30.19999694824219
 11
16.94287109375
 21
30.19999694824219
  0
LINE
  8
0
  6
CONTINUOUS
 62
     7
 10
-11.500244140625
 20
30.19999694824219
 11
11.500244140625
 21
30.19999694824219
  0
LINE
  8
0
  6
CONTINUOUS
 62
     7
 10
14.735107421875
 20
13.5
 11
32
 21
13.5
  0
LINE
  8
0
  6
CONTINUOUS
 62
     7
 10
34.00054931640625
 20
15.49955368041992
 11
32.00054168701172
 21
13.49955558776856
  0
LINE
  8
0
  6
CONTINUOUS
 62
     7
 10
32.00070571899414
 20
46.500244140625
 11
34.00082778930664
 21
44.50010299682617
  0
LINE
  8
0
  6
CONTINUOUS
 62
     7
 10
34
 20
44.49998474121094
 11
34
 21
15.5
  0
LINE
  8
0
  6
CONTINUOUS
 62
     7
 10
17.0012378692627
 20
1.848891735076904
 11
15.15123271942139
 21
-0.001113243866711855
  0
LINE
  8
0
  6
CONTINUOUS
 62
     7
 10
-16.99909210205078
 20
1.850583672523499
 11
-15.14910888671875
 21
0.0006002787267789245
  0
LINE
  8
0
  6
CONTINUOUS
 62
     7
 10
15.80078887939453
 20
27.50048828125
 11
17.00076293945313
 21
26.30051231384277
  0
LINE
  8
0
  6
CONTINUOUS
 62
     7
 10
-15.79944229125977
 20
27.49929809570313
 11
-16.99943923950195
 21
26.29930305480957
  0
LINE
  8
0
  6
CONTINUOUS
 62
     7
 10
3.800048828125
 20
0.5999908447265625
 11
8.2001953125
 21
0.5999908447265625
  0
LINE
  8
0
  6
CONTINUOUS
 62
     7
 10
-8.199951171875
 20
0.5999755859375
 11
-3.7998046875
 21
0.5999755859375
  0
LINE
  8
0
  6
CONTINUOUS
 62
     7
 10
8.20088005065918
 20
0.6007300615310669
 11
8.80078125
 21
0.0008284043869934976
  0
LINE
  8
0
  6
CONTINUOUS
 62
     7
 10
3.800530195236206
 20
0.5994091033935547
 11
3.200542688369751
 21
-0.0005786593537777662
  0
LINE
  8
0
  6
CONTINUOUS
 62
     7
 10
-3.799442291259766
 20
0.5999711751937866
 11
-3.199540853500366
 21
6.972770643187687E-005
  0
LINE
  8
0
  6
CONTINUOUS
 62
     7
 10
-8.198692321777344
 20
0.5987070202827454
 11
-8.798701286315918
 21
-0.001302539370954037
  0
LINE
  8
0
  6
CONTINUOUS
 62
     7
 10
-8.7998046875
 20
0
 11
-15.14990234375
 21
0
  0
LINE
  8
0
  6
CONTINUOUS
 62
     7
 10
-3.199951171875
 20
0
 11
3.2001953125
 21
0
  0
LINE
  8
0
  6
CONTINUOUS
 62
     7
 10
17
 20
9.845367431640625
 11
17
 21
1.849990844726563
  0
LINE
  8
0
  6
CONTINUOUS
 62
     7
 10
14.9423828125
 20
27.5
 11
15.800048828125
 21
27.5
  0
LINE
  8
0
  6
CONTINUOUS
 62
     7
 10
-11.07763671875
 20
27.5
 11
11.077880859375
 21
27.5
  0
LINE
  8
0
  6
CONTINUOUS
 62
     7
 10
-17
 20
9.845367431640625
 11
-17
 21
1.849990844726563
  0
LINE
  8
0
  6
CONTINUOUS
 62
     7
 10
-11.53567695617676
 20
12.99944877624512
 11
-16.99950218200684
 21
9.844908714294434
  0
LINE
  8
0
  6
CONTINUOUS
 62
     7
 10
-11.16929912567139
 20
14.36645221710205
 11
-15.00729465484619
 21
21.01405906677246
  0
LINE
  8
0
  6
CONTINUOUS
 62
     7
 10
11.17214298248291
 20
14.36486434936523
 11
15.01014041900635
 21
21.01247024536133
  0
LINE
  8
0
  6
CONTINUOUS
 62
     7
 10
17
 20
26.29998779296875
 11
17
 21
23.94069480895996
  0
LINE
  8
0
  6
CONTINUOUS
 62
     7
 10
-15.7998046875
 20
27.5
 11
-14.942138671875
 21
27.5
  0
LINE
  8
0
  6
CONTINUOUS
 62
     7
 10
15.150146484375
 20
0
 11
8.800048828125
 21
0
  0
LINE
  8
0
  6
CONTINUOUS
 62
     7
 10
198.000244140625
 20
35.49993896484375
 11
201.000244140625
 21
35.49993896484375
  0
LINE
  8
0
  6
CONTINUOUS
 62
     7
 10
200.6002349853516
 20
39.49947738647461
 11
199.1002502441406
 21
42.99945449829102
  0
LINE
  8
0
  6
CONTINUOUS
 62
     7
 10
199.7003936767578
 20
39.49914169311523
 11
198.1003875732422
 21
42.99914932250977
  0
LINE
  8
0
  6
CONTINUOUS
 62
     7
 10
199.100341796875
 20
42.999755859375
 11
193.900146484375
 21
42.999755859375
  0
LINE
  8
0
  6
CONTINUOUS
 62
     7
 10
193.9006500244141
 20
42.99919891357422
 11
193.5006408691406
 21
42.41919326782227
  0
LINE
  8
0
  6
CONTINUOUS
 62
     7
 10
193.9003295898438
 20
35.99939727783203
 11
193.5003204345703
 21
36.57942962646484
  0
LINE
  8
0
  6
CONTINUOUS
 62
     7
 10
199.7006225585938
 20
39.49961090087891
 11
198.1006164550781
 21
35.99959182739258
  0
LINE
  8
0
  6
CONTINUOUS
 62
     7
 10
200.6007995605469
 20
39.49956512451172
 11
199.1007843017578
 21
35.99956130981445
  0
LINE
  8
0
  6
CONTINUOUS
 62
     7
 10
199.100341796875
 20
35.9599609375
 11
199.100341796875
 21
35.99993896484375
  0
LINE
  8
0
  6
CONTINUOUS
 62
     7
 10
199.100341796875
 20
35.99993896484375
 11
193.900146484375
 21
35.99993896484375
  0
LINE
  8
0
  6
CONTINUOUS
 62
     7
 10
201.0005798339844
 20
43.61930465698242
 11
201.5005645751953
 21
44.11929321289063
  0
LINE
  8
0
  6
CONTINUOUS
 62
     7
 10
201.5004119873047
 20
34.87953948974609
 11
201.0004730224609
 21
35.37948608398438
  0
LINE
  8
0
  6
CONTINUOUS
 62
     7
 10
203.000244140625
 20
37.18994140625
 11
201.000244140625
 21
37.18994140625
  0
LINE
  8
0
  6
CONTINUOUS
 62
     7
 10
203.000244140625
 20
34.87994384765625
 11
201.500244140625
 21
34.87994384765625
  0
LINE
  8
0
  6
CONTINUOUS
 62
     7
 10
203.000244140625
 20
41.8099365234375
 11
201.000244140625
 21
41.8099365234375
  0
LINE
  8
0
  6
CONTINUOUS
 62
     7
 10
203.000244140625
 20
44.119873046875
 11
201.500244140625
 21
44.119873046875
  0
LINE
  8
0
  6
CONTINUOUS
 62
     7
 10
198.000244140625
 20
43.499755859375
 11
201.000244140625
 21
43.499755859375
  0
LINE
  8
0
  6
CONTINUOUS
 62
     7
 10
201.000244140625
 20
35.37994384765625
 11
201.000244140625
 21
43.619873046875
  0
LINE
  8
0
  6
CENTER
 62
     7
 10
189.80029296875
 20
39.49993896484375
 11
205.728759765625
 21
39.49993896484375
  0
LINE
  8
0
  6
CONTINUOUS
 62
     7
 10
204.5
 20
14.5
 11
275.4998779296875
 21
14.5
  0
LINE
  8
0
  6
CONTINUOUS
 62
     7
 10
204.5
 20
13.29998779296875
 11
275.4998779296875
 21
13.29998779296875
  0
LINE
  8
0
  6
CONTINUOUS
 62
     7
 10
275.4998779296875
 20
14.5
 11
275.4998779296875
 21
13.29998779296875
  0
LINE
  8
0
  6
CONTINUOUS
 62
     7
 10
204.5
 20
14.5
 11
204.5
 21
13.29998779296875
  0
LINE
  8
0
  6
CONTINUOUS
 62
     7
 10
275.0006408691406
 20
14.69919872283936
 11
275.5006408691406
 21
15.19919967651367
  0
LINE
  8
0
  6
CONTINUOUS
 62
     7
 10
275.5003356933594
 20
45.99959945678711
 11
275.0002136230469
 21
46.49971771240234
  0
LINE
  8
0
  6
CONTINUOUS
 62
     7
 10
275.4998779296875
 20
46.49981689453125
 11
276.9998779296875
 21
46.49981689453125
  0
LINE
  8
0
  6
CONTINUOUS
 62
     7
 10
275.4998779296875
 20
13.5
 11
278.9998779296875
 21
13.5
  0
LINE
  8
0
  6
CONTINUOUS
 62
     7
 10
262.8500061035156
 20
14.69998168945313
 11
274.9998779296875
 21
14.69998168945313
  0
LINE
  8
0
  6
CONTINUOUS
 62
     7
 10
262.8500061035156
 20
46.49981689453125
 11
274.9998779296875
 21
46.49981689453125
  0
LINE
  8
0
  6
CONTINUOUS
 62
     7
 10
276.9998779296875
 20
13.5
 11
276.9998779296875
 21
46.49981689453125
  0
LINE
  8
0
  6
CONTINUOUS
 62
     7
 10
278.9998779296875
 20
13.5
 11
278.9998779296875
 21
28.5
  0
LINE
  8
0
  6
CONTINUOUS
 62
     7
 10
275.4998779296875
 20
13.29998779296875
 11
275.4998779296875
 21
46.49981689453125
  0
LINE
  8
0
  6
CONTINUOUS
 62
     7
 10
262.8500061035156
 20
14.5
 11
262.8500061035156
 21
46.49981689453125
  0
LINE
  8
0
  6
CONTINUOUS
 62
     7
 10
204.5003967285156
 20
15.19957160949707
 11
205.0003356933594
 21
14.69962501525879
  0
LINE
  8
0
  6
CONTINUOUS
 62
     7
 10
205.0015106201172
 20
46.4984130859375
 11
204.5015106201172
 21
45.9984016418457
  0
LINE
  8
0
  6
CONTINUOUS
 62
     7
 10
203
 20
46.49981689453125
 11
204.5
 21
46.49981689453125
  0
LINE
  8
0
  6
CONTINUOUS
 62
     7
 10
201
 20
13.5
 11
204.5
 21
13.5
  0
LINE
  8
0
  6
CONTINUOUS
 62
     7
 10
205
 20
14.69998168945313
 11
217.1499938964844
 21
14.69998168945313
  0
LINE
  8
0
  6
CONTINUOUS
 62
     7
 10
205
 20
46.49981689453125
 11
217.1499938964844
 21
46.49981689453125
  0
LINE
  8
0
  6
CONTINUOUS
 62
     7
 10
203
 20
46.49981689453125
 11
203
 21
13.5
  0
LINE
  8
0
  6
CONTINUOUS
 62
     7
 10
201
 20
28.5
 11
201
 21
13.5
  0
LINE
  8
0
  6
CONTINUOUS
 62
     7
 10
204.5
 20
46.49981689453125
 11
204.5
 21
13.29998779296875
  0
LINE
  8
0
  6
CONTINUOUS
 62
     7
 10
217.1499938964844
 20
46.49981689453125
 11
217.1499938964844
 21
14.5
  0
LINE
  8
0
  6
CONTINUOUS
 62
     7
 10
217.1499938964844
 20
14.5
 11
262.8500061035156
 21
14.5
  0
LINE
  8
0
  6
CONTINUOUS
 62
     7
 10
278.9998779296875
 20
27.5
 11
380
 21
27.5
  0
LINE
  8
0
  6
CONTINUOUS
 62
     7
 10
100
 20
0
 11
380
 21
0
  0
LINE
  8
0
  6
CONTINUOUS
 62
     7
 10
100
 20
27.5
 11
201
 21
27.5
  0
LINE
  8
0
  6
CONTINUOUS
 62
     7
 10
-32.00070571899414
 20
46.500244140625
 11
-34.00082778930664
 21
44.50010299682617
  0
LINE
  8
0
  6
CONTINUOUS
 62
     7
 10
-34.25042343139648
 20
44.99983215332031
 11
-32.75040435791016
 21
46.49983978271484
  0
LINE
  8
0
  6
CENTER
 62
     7
 10
-23.38500022888184
 20
14.29998779296875
 11
-23.38500022888184
 21
10.50000095367432
  0
LINE
  8
0
  6
CONTINUOUS
 62
     7
 10
-25.63505172729492
 20
13.29998779296875
 11
-25.56660270690918
 21
12.41762638092041
  0
LINE
  8
0
  6
CONTINUOUS
 62
     7
 10
-21.20321846008301
 20
12.41766262054443
 11
-21.13477325439453
 21
13.29998779296875
  0
LINE
  8
0
  6
CENTER
 62
     7
 10
23.38500022888184
 20
14.29998779296875
 11
23.38500022888184
 21
10.50000095367432
  0
LINE
  8
0
  6
CENTER
 62
     7
 10
223.1999969482422
 20
14.29998779296875
 11
223.1999969482422
 21
10.49981784820557
  0
LINE
  8
0
  6
CONTINUOUS
 62
     7
 10
220.9499359130859
 20
13.29998683929443
 11
221.0183868408203
 21
12.41744232177734
  0
LINE
  8
0
  6
CONTINUOUS
 62
     7
 10
225.3817749023438
 20
12.41748046875
 11
225.4502258300781
 21
13.29998970031738
  0
LINE
  8
0
  6
CENTER
 62
     7
 10
256.7999877929688
 20
14.29998779296875
 11
256.7999877929688
 21
10.49981784820557
  0
LINE
  8
0
  6
CONTINUOUS
 62
     7
 10
100
 20
27.5
 11
100
 21
0
  0
LINE
  8
0
  6
CENTER
 62
     7
 10
120
 20
28.5
 11
120
 21
-1
  0
LINE
  8
0
  6
DASHED
 62
     7
 10
113
 20
27.5
 11
113
 21
15.5
  0
LINE
  8
0
  6
DASHED
 62
     7
 10
127
 20
27.5
 11
127
 21
15.5
  0
LINE
  8
0
  6
DASHED
 62
     7
 10
115.5
 20
15.5
 11
115.5
 21
0
  0
LINE
  8
0
  6
DASHED
 62
     7
 10
113
 20
15.5
 11
127
 21
15.5
  0
LINE
  8
0
  6
DASHED
 62
     7
 10
124.5
 20
15.5
 11
124.5
 21
0
  0
LINE
  8
0
  6
CONTINUOUS
 62
     7
 10
100
 20
9.845663070678711
 11
380
 21
9.845663070678711
  0
LINE
  8
0
  6
CONTINUOUS
 62
     7
 10
100
 20
23.94069480895996
 11
201
 21
23.94069480895996
  0
LINE
  8
0
  6
CONTINUOUS
 62
     7
 10
100
 20
26.30127716064453
 11
201
 21
26.30127716064453
  0
LINE
  8
0
  6
CONTINUOUS
 62
     7
 10
100
 20
21.00937652587891
 11
201
 21
21.00937652587891
  0
LINE
  8
0
  6
CONTINUOUS
 62
     7
 10
380
 20
27.5
 11
380
 21
0
  0
LINE
  8
0
  6
CONTINUOUS
 62
     7
 10
380
 20
23.94069480895996
 11
279
 21
23.94069480895996
  0
LINE
  8
0
  6
CONTINUOUS
 62
     7
 10
380
 20
21.00937652587891
 11
279
 21
21.00937652587891
  0
LINE
  8
0
  6
CONTINUOUS
 62
     7
 10
380
 20
26.30127716064453
 11
279
 21
26.30127716064453
  0
LINE
  8
0
  6
CENTER
 62
     7
 10
360
 20
28.5
 11
360
 21
-1
  0
LINE
  8
0
  6
CONTINUOUS
 62
     7
 10
203
 20
143.9998168945313
 11
204.5
 21
143.9998168945313
  0
LINE
  8
0
  6
CONTINUOUS
 62
     7
 10
100
 20
160.9998168945313
 11
201
 21
160.9998168945313
  0
LINE
  8
0
  6
CENTER
 62
     7
 10
120
 20
185.9998168945313
 11
120
 21
169.9998168945313
  0
LINE
  8
0
  6
CONTINUOUS
 62
     7
 10
100
 20
166.9221496582031
 11
195.2395629882813
 21
166.9221496582031
  0
LINE
  8
0
  6
CONTINUOUS
 62
     7
 10
100
 20
163.0574645996094
 11
201
 21
163.0574645996094
  0
LINE
  8
0
  6
CONTINUOUS
 62
     7
 10
201
 20
28.49999809265137
 11
203
 21
30.5
  0
LINE
  8
0
  6
CONTINUOUS
 62
     7
 10
276.9998779296875
 20
30.5
 11
278.9998779296875
 21
28.49999809265137
  0
LINE
  8
0
  6
CONTINUOUS
 62
     7
 10
200.9999847412109
 20
159.9998168945313
 11
202.9999847412109
 21
157.9998168945313
  0
LINE
  8
0
  6
CONTINUOUS
 62
     7
 10
204.5
 20
143.7498168945313
 11
217.1499938964844
 21
143.7498168945313
  0
LINE
  8
0
  6
CONTINUOUS
 62
     7
 10
204.5
 20
212.2498168945313
 11
217.1499938964844
 21
212.2498168945313
  0
LINE
  8
0
  6
CONTINUOUS
 62
     7
 10
201
 20
195.9998168945313
 11
203
 21
197.9998168945313
  0
LINE
  8
0
  6
CONTINUOUS
 62
     7
 10
100
 20
194.9998168945313
 11
201
 21
194.9998168945313
  0
LINE
  8
0
  6
CONTINUOUS
 62
     7
 10
203
 20
211.9998168945313
 11
204.5
 21
211.9998168945313
  0
LINE
  8
0
  6
CONTINUOUS
 62
     7
 10
100
 20
192.9421691894531
 11
201
 21
192.9421691894531
  0
LINE
  8
0
  6
CONTINUOUS
 62
     7
 10
100
 20
189.0774841308594
 11
201
 21
189.0774841308594
  0
LINE
  8
0
  6
CONTINUOUS
 62
     7
 10
204.5
 20
143.7498168945313
 11
204.5
 21
212.2498168945313
  0
LINE
  8
0
  6
CONTINUOUS
 62
     7
 10
100
 20
160.9998168945313
 11
100
 21
194.9998168945313
  0
LINE
  8
0
  6
CONTINUOUS
 62
     7
 10
201
 20
159.9998168945313
 11
201
 21
173.9998168945313
  0
LINE
  8
0
  6
CONTINUOUS
 62
     7
 10
217.1499938964844
 20
127.9998168945313
 11
217.1499938964844
 21
227.9998168945313
  0
LINE
  8
0
  6
CONTINUOUS
 62
     7
 10
203
 20
143.9998168945313
 11
203
 21
211.9998168945313
  0
LINE
  8
0
  6
CONTINUOUS
 62
     7
 10
380
 20
194.9998168945313
 11
279
 21
194.9998168945313
  0
LINE
  8
0
  6
CONTINUOUS
 62
     7
 10
279
 20
159.9998168945313
 11
279
 21
195.9998168945313
  0
LINE
  8
0
  6
CONTINUOUS
 62
     7
 10
275.5
 20
143.7498168945313
 11
275.5
 21
212.2498168945313
  0
LINE
  8
0
  6
CONTINUOUS
 62
     7
 10
380
 20
160.9998168945313
 11
380
 21
194.9998168945313
  0
LINE
  8
0
  6
CONTINUOUS
 62
     7
 10
262.8500061035156
 20
127.9998168945313
 11
262.8500061035156
 21
227.9998168945313
  0
LINE
  8
0
  6
CONTINUOUS
 62
     7
 10
277
 20
143.9998168945313
 11
277
 21
211.9998168945313
  0
LINE
  8
0
  6
CONTINUOUS
 62
     7
 10
380
 20
189.0774841308594
 11
279
 21
189.0774841308594
  0
LINE
  8
0
  6
CONTINUOUS
 62
     7
 10
380
 20
192.9421691894531
 11
279
 21
192.9421691894531
  0
LINE
  8
0
  6
CONTINUOUS
 62
     7
 10
275.5
 20
143.7498168945313
 11
262.8500061035156
 21
143.7498168945313
  0
LINE
  8
0
  6
CONTINUOUS
 62
     7
 10
279
 20
195.9998168945313
 11
277
 21
197.9998168945313
  0
LINE
  8
0
  6
CONTINUOUS
 62
     7
 10
279
 20
159.9998321533203
 11
277
 21
157.9998321533203
  0
LINE
  8
0
  6
CONTINUOUS
 62
     7
 10
275.5
 20
212.2498168945313
 11
262.8500061035156
 21
212.2498168945313
  0
LINE
  8
0
  6
CONTINUOUS
 62
     7
 10
277
 20
211.9998168945313
 11
275.5
 21
211.9998168945313
  0
LINE
  8
0
  6
CONTINUOUS
 62
     7
 10
380
 20
160.9998168945313
 11
279
 21
160.9998168945313
  0
LINE
  8
0
  6
CONTINUOUS
 62
     7
 10
277
 20
143.9998168945313
 11
275.5
 21
143.9998168945313
  0
LINE
  8
0
  6
CONTINUOUS
 62
     7
 10
380
 20
163.0574645996094
 11
279
 21
163.0574645996094
  0
LINE
  8
0
  6
CENTER
 62
     7
 10
360
 20
185.9998168945313
 11
360
 21
169.9998168945313
  0
LINE
  8
0
  6
CONTINUOUS
 62
     7
 10
380
 20
166.9221496582031
 11
279
 21
166.9221496582031
  0
LINE
  8
0
  6
CENTER
 62
     7
 10
381
 20
177.9998168945313
 11
99
 21
177.9998168945313
  0
LINE
  8
0
  6
CENTER
 62
     7
 10
200
 20
185.9998168945313
 11
200
 21
169.9998168945313
  0
LINE
  8
0
  6
CONTINUOUS
 62
     7
 10
201
 20
173.9998016357422
 11
201
 21
181.9998016357422
  0
LINE
  8
0
  6
CONTINUOUS
 62
     7
 10
197.7000885009766
 20
181.9998168945313
 11
201
 21
181.9998168945313
  0
LINE
  8
0
  6
CONTINUOUS
 62
     7
 10
199.3201141357422
 20
173.9998168945313
 11
201
 21
173.9998168945313
  0
LINE
  8
0
  6
CONTINUOUS
 62
     7
 10
193.7001037597656
 20
177.9998168945313
 11
193.7001037597656
 21
176.3276977539063
  0
LINE
  8
0
  6
CONTINUOUS
 62
     7
 10
200.9999847412109
 20
181.9998168945313
 11
202.9999847412109
 21
181.9998168945313
  0
LINE
  8
0
  6
CONTINUOUS
 62
     7
 10
200.9999847412109
 20
173.9998168945313
 11
202.9999847412109
 21
173.9998168945313
  0
LINE
  8
0
  6
CENTER
 62
     7
 10
193.2518615722656
 20
166.4776916503906
 11
198.1171569824219
 21
178.2235870361328
  0
LINE
  8
0
  6
CONTINUOUS
 62
     7
 10
191.4827880859375
 20
168.4782562255859
 11
195.9174041748047
 21
166.6413726806641
  0
LINE
  8
0
  6
CONTINUOUS
 62
     7
 10
191.6845397949219
 20
171.3171539306641
 11
197.7821502685547
 21
168.7914428710938
  0
LINE
  8
0
  6
CONTINUOUS
 62
     7
 10
191.4827880859375
 20
168.4782562255859
 11
191.6845550537109
 21
171.3171539306641
  0
LINE
  8
0
  6
CONTINUOUS
 62
     7
 10
195.9174041748047
 20
166.6413726806641
 11
197.7821655273438
 21
168.7914581298828
  0
LINE
  8
0
  6
CONTINUOUS
 62
     7
 10
192.4232482910156
 20
175.0379943847656
 11
192.8379211425781
 21
176.0390777587891
  0
LINE
  8
0
  6
CONTINUOUS
 62
     7
 10
199.8908538818359
 20
171.94482421875
 11
200.3055114746094
 21
172.9458923339844
  0
LINE
  8
0
  6
CONTINUOUS
 62
     7
 10
193.6173553466797
 20
176.3619079589844
 11
192.8379211425781
 21
176.0390472412109
  0
LINE
  8
0
  6
CONTINUOUS
 62
     7
 10
194.060546875
 20
173.7104187011719
 11
194.9331359863281
 21
175.8169860839844
  0
LINE
  8
0
  6
CONTINUOUS
 62
     7
 10
197.7943267822266
 20
172.163818359375
 11
198.6669006347656
 21
174.2704010009766
  0
LINE
  8
0
  6
CONTINUOUS
 62
     7
 10
193.6173706054688
 20
176.3619689941406
 11
199.9826812744141
 21
173.7253723144531
  0
LINE
  8
0
  6
CONTINUOUS
 62
     7
 10
200.3055267333984
 20
172.9458770751953
 11
199.982666015625
 21
173.7253265380859
  0
LINE
  8
0
  6
CONTINUOUS
 62
     7
 10
192.8148193359375
 20
172.7393035888672
 11
197.988525390625
 21
170.5962677001953
  0
LINE
  8
0
  6
CONTINUOUS
 62
     7
 10
192.6530456542969
 20
174.2934112548828
 11
199.2018432617188
 21
171.580810546875
  0
LINE
  8
0
  6
CONTINUOUS
 62
     7
 10
201
 20
181.9998168945313
 11
201
 21
195.9998168945313
  0
LINE
  8
0
  6
CONTINUOUS
 62
     7
 10
196.1609191894531
 20
166.9221496582031
 11
201
 21
166.9221496582031
  0
LINE
  8
0
  6
CONTINUOUS
 62
     7
 10
-33.88037109375
 20
14.5
 11
-32.99999237060547
 21
14.5
  0
LINE
  8
0
  6
CONTINUOUS
 62
     7
 10
-48.199951171875
 20
48
 11
-27.649658203125
 21
48
  0
LINE
  8
0
  6
CONTINUOUS
 62
     7
 10
-49.9998779296875
 20
46.19998168945313
 11
-49.9998779296875
 21
36.75
  0
LINE
  8
0
  6
CONTINUOUS
 62
     7
 10
-26.9996337890625
 20
47.34999084472656
 11
-8.9996337890625
 21
47.34999084472656
  0
LINE
  8
0
  6
CONTINUOUS
 62
     7
 10
-8.349687576293945
 20
47.99973297119141
 11
-8.999686241149902
 21
47.34971618652344
  0
LINE
  8
0
  6
CONTINUOUS
 62
     7
 10
-8.3499755859375
 20
48
 11
8.350341796875
 21
48
  0
LINE
  8
0
  6
CONTINUOUS
 62
     7
 10
-27.64960861206055
 20
47.99983215332031
 11
-26.99964332580566
 21
47.34986877441406
  0
LINE
  8
0
  6
CONTINUOUS
 62
     7
 10
-48.19958114624023
 20
47.9996223449707
 11
-49.99955749511719
 21
46.19963073730469
  0
LINE
  8
0
  6
CONTINUOUS
 62
     7
 10
-48.249755859375
 20
35
 11
-45.511962890625
 21
35
  0
LINE
  8
0
  6
CONTINUOUS
 62
     7
 10
-48.24919891357422
 20
35.00004196166992
 11
-49.99917984008789
 21
36.75003051757813
  0
LINE
  8
0
  6
CONTINUOUS
 62
     7
 10
-41.64811706542969
 20
32.03538131713867
 11
-37.74395751953125
 21
17.46487045288086
  0
LINE
  8
0
  6
CENTER
 62
     7
 10
-40.9998779296875
 20
49
 11
-40.9998779296875
 21
28.08900451660156
  0
LINE
  8
0
  6
DASHED
 62
     7
 10
-45.4998779296875
 20
48
 11
-45.4998779296875
 21
35.00003051757813
  0
LINE
  8
0
  6
DASHED
 62
     7
 10
-36.4998779296875
 20
48
 11
-36.4998779296875
 21
35.00003051757813
  0
LINE
  8
0
  6
DASHED
 62
     7
 10
-33.999755859375
 20
35
 11
-33.999755859375
 21
14.50180053710938
  0
LINE
  8
0
  6
DASHED
 62
     7
 10
-45.511962890625
 20
35
 11
-33.999755859375
 21
35
  0
LINE
  8
0
  6
CONTINUOUS
 62
     7
 10
33.00099182128906
 20
14.5
 11
33.8807373046875
 21
14.5
  0
LINE
  8
0
  6
CONTINUOUS
 62
     7
 10
27.6500244140625
 20
48
 11
48.2003173828125
 21
48
  0
LINE
  8
0
  6
CONTINUOUS
 62
     7
 10
50.000244140625
 20
36.75
 11
50.000244140625
 21
46.19998168945313
  0
LINE
  8
0
  6
CONTINUOUS
 62
     7
 10
9
 20
47.34999084472656
 11
27
 21
47.34999084472656
  0
LINE
  8
0
  6
CONTINUOUS
 62
     7
 10
9.000399589538574
 20
47.34992218017578
 11
8.350443840026856
 21
47.99989700317383
  0
LINE
  8
0
  6
CONTINUOUS
 62
     7
 10
27.00028991699219
 20
47.34989166259766
 11
27.65029907226563
 21
47.99990081787109
  0
LINE
  8
0
  6
CONTINUOUS
 62
     7
 10
50.00008010864258
 20
46.19999313354492
 11
48.20012283325195
 21
47.99996566772461
  0
LINE
  8
0
  6
CONTINUOUS
 62
     7
 10
45.5123291015625
 20
35
 11
48.2501220703125
 21
35
  0
LINE
  8
0
  6
CONTINUOUS
 62
     7
 10
50.00051879882813
 20
36.74942016601563
 11
48.25053405761719
 21
34.99943161010742
  0
LINE
  8
0
  6
CONTINUOUS
 62
     7
 10
37.7447624206543
 20
17.4645881652832
 11
41.64892196655273
 21
32.03511428833008
  0
LINE
  8
0
  6
CENTER
 62
     7
 10
41.000244140625
 20
28.08900451660156
 11
41.000244140625
 21
49
  0
LINE
  8
0
  6
CONTINUOUS
 62
     7
 10
218.9505462646484
 20
47.99981689453125
 11
261.0500793457031
 21
47.99981689453125
  0
LINE
  8
0
  6
CENTER
 62
     7
 10
240
 20
48.99981689453125
 11
240
 21
14.18441867828369
  0
LINE
  8
0
  6
DASHED
 62
     7
 10
235.5003662109375
 20
47.99981689453125
 11
235.5003662109375
 21
34.99981689453125
  0
LINE
  8
0
  6
DASHED
 62
     7
 10
244.5
 20
47.99981689453125
 11
244.5
 21
34.99981689453125
  0
LINE
  8
0
  6
CONTINUOUS
 62
     7
 10
217.1505889892578
 20
34.99978637695313
 11
262.8501281738281
 21
34.99978637695313
  0
LINE
  8
0
  6
CONTINUOUS
 62
     7
 10
218.9507446289063
 20
47.99916839599609
 11
217.1507415771484
 21
46.19918060302734
  0
LINE
  8
0
  6
CONTINUOUS
 62
     7
 10
261.0507202148438
 20
47.99935150146484
 11
262.8506774902344
 21
46.19938659667969
  0
LINE
  8
0
  6
CONTINUOUS
 62
     7
 10
247.0010375976563
 20
34.99978637695313
 11
242.9225463867188
 21
17.50265121459961
  0
LINE
  8
0
  6
CONTINUOUS
 62
     7
 10
233.0001831054688
 20
34.99978637695313
 11
237.0786743164063
 21
17.50264930725098
  0
LINE
  8
0
  6
CONTINUOUS
 62
     7
 10
262.8500061035156
 20
127.9998168945313
 11
217.1499938964844
 21
127.9998168945313
  0
LINE
  8
0
  6
CONTINUOUS
 62
     7
 10
262.8500061035156
 20
227.9998168945313
 11
217.1499938964844
 21
227.9998168945313
  0
LINE
  8
0
  6
CENTER
 62
     7
 10
240
 20
142.4998168945313
 11
240
 21
131.4998168945313
  0
LINE
  8
0
  6
CENTER
 62
     7
 10
234.5
 20
136.9998168945313
 11
245.5
 21
136.9998168945313
  0
LINE
  8
0
  6
CONTINUOUS
 62
     7
 10
262.8500061035156
 20
169.6494750976563
 11
217.1499938964844
 21
169.6494750976563
  0
LINE
  8
0
  6
CONTINUOUS
 62
     7
 10
262.8500061035156
 20
150.3494110107422
 11
217.1499938964844
 21
150.3494110107422
  0
LINE
  8
0
  6
CENTER
 62
     7
 10
240
 20
213.4998168945313
 11
240
 21
224.4998168945313
  0
LINE
  8
0
  6
CENTER
 62
     7
 10
234.5
 20
218.9998168945313
 11
245.5
 21
218.9998168945313
  0
LINE
  8
0
  6
CONTINUOUS
 62
     7
 10
262.8500061035156
 20
186.3501586914063
 11
217.1499938964844
 21
186.3501586914063
  0
LINE
  8
0
  6
CONTINUOUS
 62
     7
 10
262.8500061035156
 20
205.6502227783203
 11
217.1499938964844
 21
205.6502227783203
  0
LINE
  8
0
  6
CENTER
 62
     7
 10
280
 20
185.9998168945313
 11
280
 21
169.9998168945313
  0
LINE
  8
0
  6
CENTER
 62
     7
 10
280
 20
28.5
 11
280
 21
-1
  0
LINE
  8
0
  6
CENTER
 62
     7
 10
200
 20
28.5
 11
200
 21
-1
  0
ARC
  8
0
  6
CONTINUOUS
 62
     7
 10
-18.384765625
 20
14.5
 40
1.199999809265137
 50
270.0000179860893
 51
303.5572496425497
  0
ARC
  8
0
  6
CONTINUOUS
 62
     7
 10
-18.385009765625
 20
14.5
 40
1.199999809265137
 50
270.0000179860893
 51
303.5571950010364
  0
ARC
  8
0
  6
CONTINUOUS
 62
     7
 10
-12.506103515625
 20
15.47979736328125
 40
0.5999999642372126
 50
300.0000666322396
 51
30.00002815558267
  0
ARC
  8
0
  6
CONTINUOUS
 62
     7
 10
-16.804443359375
 20
16.92410278320313
 40
1
 50
300.0004491228332
 51
29.99975494801585
  0
ARC
  8
0
  6
CONTINUOUS
 62
     7
 10
-13
 20
31.34999084472656
 40
1.889999389648436
 50
217.4784314198192
 51
322.5215704014136
  0
ARC
  8
0
  6
CONTINUOUS
 62
     7
 10
18.384765625
 20
14.5
 40
1.199999809265136
 50
236.4427521786831
 51
270.0000179860893
  0
ARC
  8
0
  6
CONTINUOUS
 62
     7
 10
0
 20
39.5
 40
3.998106002807619
 50
61.09402038976974
 51
298.9059076658729
  0
ARC
  8
0
  6
CONTINUOUS
 62
     7
 10
0
 20
39.5
 40
4.000000000000001
 50
298.9550476892276
 51
300.0000119907263
  0
ARC
  8
0
  6
CONTINUOUS
 62
     7
 10
7.610107421875
 20
41.78999328613281
 40
0.9701611399650598
 50
81.70288677623263
 51
144.668542923126
  0
ARC
  8
0
  6
CONTINUOUS
 62
     7
 10
6.6201171875
 20
43.58000183105469
 40
1.254199028015138
 50
217.8749648822736
 51
279.2353626496737
  0
ARC
  8
0
  6
CONTINUOUS
 62
     7
 10
6.6201171875
 20
35.41999816894531
 40
1.246148109436035
 50
80.76452806729958
 51
142.1250351177264
  0
ARC
  8
0
  6
CONTINUOUS
 62
     7
 10
7.610107421875
 20
37.20999145507813
 40
0.9683421850204466
 50
215.3314570768741
 51
278.2972225067941
  0
ARC
  8
0
  6
CONTINUOUS
 62
     7
 10
18.385009765625
 20
14.5
 40
1.199999809265136
 50
236.4428068201965
 51
270.0000179860893
  0
ARC
  8
0
  6
CONTINUOUS
 62
     7
 10
12.506103515625
 20
15.47979736328125
 40
0.5999999642372128
 50
149.9999700231845
 51
239.9999520370951
  0
ARC
  8
0
  6
CONTINUOUS
 62
     7
 10
16.804443359375
 20
16.92410278320313
 40
0.9999999999999994
 50
150.0002432307513
 51
239.9995695465016
  0
ARC
  8
0
  6
CONTINUOUS
 62
     7
 10
13
 20
31.34999084472656
 40
1.889999389648436
 50
217.4784314198192
 51
322.5215704014136
  0
ARC
  8
0
  6
CONTINUOUS
 62
     7
 10
12.0361328125
 20
13.86601257324219
 40
1.000000000000001
 50
150.0000246646978
 51
239.9999520370951
  0
ARC
  8
0
  6
CONTINUOUS
 62
     7
 10
-12.035888671875
 20
13.86601257324219
 40
1
 50
300.0000119907262
 51
29.99998375935315
  0
ARC
  8
0
  6
CONTINUOUS
 62
     7
 10
17.892578125
 20
21.19198608398438
 40
2.889999389648437
 50
107.9899762876722
 51
183.5380566594012
  0
ARC
  8
0
  6
CONTINUOUS
 62
     7
 10
13.010009765625
 20
29.64898681640625
 40
2.889999389648436
 50
228.038832782386
 51
311.961175869036
  0
ARC
  8
0
  6
CONTINUOUS
 62
     7
 10
-13.009765625
 20
29.64898681640625
 40
2.889999389648436
 50
228.038832782386
 51
311.961175869036
  0
ARC
  8
0
  6
CONTINUOUS
 62
     7
 10
-17.892333984375
 20
21.19198608398438
 40
2.889999389648438
 50
356.4619355429504
 51
72.01511038202659
  0
ARC
  8
0
  6
CONTINUOUS
 62
     7
 10
198
 20
39.50003051757813
 40
3.982465744018556
 50
241.5040862782025
 51
269.9999087030627
  0
ARC
  8
0
  6
CONTINUOUS
 62
     7
 10
198
 20
39.50003051757813
 40
3.999999999999998
 50
89.99998201391055
 51
118.4958044387709
  0
ARC
  8
0
  6
CONTINUOUS
 62
     7
 10
-23.38500022888184
 20
17.5
 40
5.999999999999999
 50
254.557342763284
 51
285.4426932088946
  0
ARC
  8
0
  6
CONTINUOUS
 62
     7
 10
-22.00023460388184
 20
12.48754978179932
 40
0.7999999523162841
 50
285.4426932088946
 51
355.0000044143218
  0
ARC
  8
0
  6
CONTINUOUS
 62
     7
 10
-24.76927757263184
 20
12.48754978179932
 40
0.7999999523162841
 50
185.0000076521947
 51
254.5573427632839
  0
ARC
  8
0
  6
CONTINUOUS
 62
     7
 10
223.1999969482422
 20
17.49981689453125
 40
5.999999999999998
 50
254.557342763284
 51
285.4426932088946
  0
ARC
  8
0
  6
CONTINUOUS
 62
     7
 10
224.5847625732422
 20
12.48736667633057
 40
0.7999999523162812
 50
285.4426932088939
 51
355.0000044143219
  0
ARC
  8
0
  6
CONTINUOUS
 62
     7
 10
221.8157196044922
 20
12.48736667633057
 40
0.7999999523162841
 50
185.0000076521947
 51
254.5573427632844
  0
CIRCLE
  8
0
  6
CONTINUOUS
 62
     7
 10
120
 20
177.9998168945313
 40
4.5
  0
CIRCLE
  8
0
  6
CONTINUOUS
 62
     7
 10
120
 20
177.9998168945313
 40
7
  0
ARC
  8
0
  6
CONTINUOUS
 62
     7
 10
194.7333374023438
 20
170.0542907714844
 40
3.299999237060546
 50
131.5803705110077
 51
157.4999548639651
  0
ARC
  8
0
  6
CONTINUOUS
 62
     7
 10
194.7333374023438
 20
170.0542907714844
 40
3.299999237060545
 50
337.5000181569009
 51
3.419602296415186
  0
ARC
  8
0
  6
CONTINUOUS
 62
     7
 10
186.8169860839844
 20
172.900390625
 40
6.00000000000001
 50
2.43365082934552
 51
20.87173987704925
  0
ARC
  8
0
  6
CONTINUOUS
 62
     7
 10
202.3435363769531
 20
166.4690856933594
 40
6.000000000000011
 50
114.1278165022775
 51
132.5663219780772
  0
ARC
  8
0
  6
CONTINUOUS
 62
     7
 10
192.0122985839844
 20
173.1211853027344
 40
0.7999999523162822
 50
311.5798327472963
 51
2.433049772698627
  0
ARC
  8
0
  6
CONTINUOUS
 62
     7
 10
198.8260192871094
 20
170.2988433837891
 40
0.7999999523162747
 50
132.5669776762372
 51
183.4201402735692
  0
ARC
  8
0
  6
CONTINUOUS
 62
     7
 10
197.7001037597656
 20
177.9998168945313
 40
3.999999999999998
 50
89.99998201391055
 51
180.0000186693345
  0
ARC
  8
0
  6
CONTINUOUS
 62
     7
 10
-45.511962890625
 20
31
 40
3.999999284744265
 50
14.99998334194006
 51
89.99992737239734
  0
ARC
  8
0
  6
CONTINUOUS
 62
     7
 10
-33.88037109375
 20
18.5
 40
3.999999284744262
 50
195.0000602952538
 51
270.000127269116
  0
ARC
  8
0
  6
CONTINUOUS
 62
     7
 10
45.5123291015625
 20
31
 40
3.999999284744265
 50
90.00003665542405
 51
164.9999943462596
  0
ARC
  8
0
  6
CONTINUOUS
 62
     7
 10
33.8807373046875
 20
18.5
 40
3.999999284744262
 50
269.9999087030626
 51
344.999941525979
  0
ARC
  8
0
  6
CONTINUOUS
 62
     7
 10
240
 20
18.18441772460938
 40
2.999999046325681
 50
193.1210479338266
 51
346.8644286363625
  0
CIRCLE
  8
0
  6
CONTINUOUS
 62
     7
 10
240
 20
136.9998168945313
 40
4.5
  0
POLYLINE
  8
0
  6
CONTINUOUS
 62
     7
 66
     1
 10
0
 20
0
 70
     1
  0
VERTEX
  8
0
  6
CONTINUOUS
 62
     7
 10
10.52001953125
 20
42
 42
0.2551605281483449
  0
VERTEX
  8
0
  6
CONTINUOUS
 62
     7
 10
9.990202750479737
 20
41.57511834744248
 42
0.06319271445582221
  0
VERTEX
  8
0
  6
CONTINUOUS
 62
     7
 10
9.736102618308749
 20
40.91223209505606
 42
0.03518703029835237
  0
VERTEX
  8
0
  6
CONTINUOUS
 62
     7
 10
9.609370472692843
 20
40.21218124884751
 42
0.02798589179771385
  0
VERTEX
  8
0
  6
CONTINUOUS
 62
     7
 10
9.57000732421875
 20
39.5
 42
0.02790009419006004
  0
VERTEX
  8
0
  6
CONTINUOUS
 62
     7
 10
9.609141740132959
 20
38.78985099016531
 42
0.0351609388809124
  0
VERTEX
  8
0
  6
CONTINUOUS
 62
     7
 10
9.73563852665986
 20
38.08955947267789
 42
0.06315679289250538
  0
VERTEX
  8
0
  6
CONTINUOUS
 62
     7
 10
9.989675902719291
 20
37.42581974598598
 42
0.2552812160364045
  0
VERTEX
  8
0
  6
CONTINUOUS
 62
     7
 10
10.52001953125
 20
37
 42
0.2551559578745654
  0
VERTEX
  8
0
  6
CONTINUOUS
 62
     7
 10
11.04983493541096
 20
37.42488519003005
 42
0.06319253877393258
  0
VERTEX
  8
0
  6
CONTINUOUS
 62
     7
 10
11.30393573583335
 20
38.08777121513414
 42
0.03518717651549657
  0
VERTEX
  8
0
  6
CONTINUOUS
 62
     7
 10
11.43066852454271
 20
38.78782195034705
 42
0.02798603583737739
  0
VERTEX
  8
0
  6
CONTINUOUS
 62
     7
 10
11.47003173828125
 20
39.5
 42
0.02789900851435754
  0
VERTEX
  8
0
  6
CONTINUOUS
 62
     7
 10
11.43089016769574
 20
40.21014864099245
 42
0.03515957623317994
  0
VERTEX
  8
0
  6
CONTINUOUS
 62
     7
 10
11.30438968761925
 20
40.91043954460519
 42
0.06315466501149052
  0
VERTEX
  8
0
  6
CONTINUOUS
 62
     7
 10
11.05035327340711
 20
41.5741798129032
 42
0.2552827079445163
  0
SEQEND
  8
0
  0
POLYLINE
  8
0
  6
CONTINUOUS
 62
     7
 66
     1
 10
0
 20
0
  0
VERTEX
  8
0
  6
CONTINUOUS
 62
     7
 10
6.820068359375
 20
42.3499755859375
 42
0.18858242118009
  0
VERTEX
  8
0
  6
CONTINUOUS
 62
     7
 10
6.460343127875381
 20
42.19028371395989
 42
0.07574329111633436
  0
VERTEX
  8
0
  6
CONTINUOUS
 62
     7
 10
6.216116915501544
 20
41.87244421264803
 42
0.03933418374832783
  0
VERTEX
  8
0
  6
CONTINUOUS
 62
     7
 10
6.046261628813316
 20
41.50711053081552
 42
0.02576972747845713
  0
VERTEX
  8
0
  6
CONTINUOUS
 62
     7
 10
5.924111032689419
 20
41.12296138358914
 42
0.01950384169932868
  0
VERTEX
  8
0
  6
CONTINUOUS
 62
     7
 10
5.836621798332051
 20
40.72875194577019
 42
0.01621329981436133
  0
VERTEX
  8
0
  6
CONTINUOUS
 62
     7
 10
5.777260890767092
 20
40.32916371185497
 42
0.01446521954113121
  0
VERTEX
  8
0
  6
CONTINUOUS
 62
     7
 10
5.742390242121364
 20
39.92664189877954
 42
0.01368987482346164
  0
VERTEX
  8
0
  6
CONTINUOUS
 62
     7
 10
5.730136839392975
 20
39.52250050001855
 42
0.01360476265893913
  0
VERTEX
  8
0
  6
CONTINUOUS
 62
     7
 10
5.739854174597179
 20
39.11965796026786
 42
0.01431405159714243
  0
VERTEX
  8
0
  6
CONTINUOUS
 62
     7
 10
5.77200337564975
 20
38.71740916886042
 42
0.015980649558184
  0
VERTEX
  8
0
  6
CONTINUOUS
 62
     7
 10
5.828511818764455
 20
38.3165934475332
 42
0.01902549185911531
  0
VERTEX
  8
0
  6
CONTINUOUS
 62
     7
 10
5.912568921004763
 20
37.9214417733042
 42
0.02487836954806468
  0
VERTEX
  8
0
  6
CONTINUOUS
 62
     7
 10
6.030577896783115
 20
37.53504639751697
 42
0.03729451135605458
  0
VERTEX
  8
0
  6
CONTINUOUS
 62
     7
 10
6.194643933288507
 20
37.16586182472642
 42
0.06998133536535943
  0
VERTEX
  8
0
  6
CONTINUOUS
 62
     7
 10
6.430218834017023
 20
36.83852674638531
 42
0.173826095691734
  0
VERTEX
  8
0
  6
CONTINUOUS
 62
     7
 10
6.779979081097031
 20
36.65192198687538
 42
0
  0
SEQEND
  8
0
  0
POLYLINE
  8
0
  6
CONTINUOUS
 62
     7
 66
     1
 10
0
 20
0
  0
VERTEX
  8
0
  6
CONTINUOUS
 62
     7
 10
192.5759728559036
 20
37.31891702221255
 42
0.06283215014821858
  0
VERTEX
  8
0
  6
CONTINUOUS
 62
     7
 10
193.1402730159499
 20
36.79274398331618
 42
0.06649716670682615
  0
VERTEX
  8
0
  6
CONTINUOUS
 62
     7
 10
193.8202751301189
 20
36.42823919677515
 42
0.06915570862476443
  0
VERTEX
  8
0
  6
CONTINUOUS
 62
     7
 10
194.5726316053508
 20
36.25938142271552
 42
0.06975087865697603
  0
VERTEX
  8
0
  6
CONTINUOUS
 62
     7
 10
195.3413884228208
 20
36.30337796022502
 42
0.06816357896369039
  0
VERTEX
  8
0
  6
CONTINUOUS
 62
     7
 10
196.0692346160101
 20
36.5551968094523
 42
0.06499660940724378
  0
VERTEX
  8
0
  6
CONTINUOUS
 62
     7
 10
196.7058028490089
 20
36.99002731092329
 42
0.06129189700669025
  0
VERTEX
  8
0
  6
CONTINUOUS
 62
     7
 10
197.2138609499988
 20
37.5701298375261
 42
0.05808055298609405
  0
VERTEX
  8
0
  6
CONTINUOUS
 62
     7
 10
197.5708555780826
 20
38.25412682839061
 42
0.05590604152548188
  0
VERTEX
  8
0
  6
CONTINUOUS
 62
     7
 10
197.7645087284395
 20
39.00127381282149
 42
0.0549573916127623
  0
VERTEX
  8
0
  6
CONTINUOUS
 62
     7
 10
197.7895211679795
 20
39.77199837050684
 42
0.05547439610585301
  0
VERTEX
  8
0
  6
CONTINUOUS
 62
     7
 10
197.6454475511322
 20
40.52989028830461
 42
0.05728131033444937
  0
VERTEX
  8
0
  6
CONTINUOUS
 62
     7
 10
197.3360405614615
 20
41.23633484731446
 42
0.06026936055082243
  0
VERTEX
  8
0
  6
CONTINUOUS
 62
     7
 10
196.8708010575209
 20
41.85164540093511
 42
0.06395335728872684
  0
VERTEX
  8
0
  6
CONTINUOUS
 62
     7
 10
196.2685917727813
 20
42.33402275211098
 42
0.0674453134767094
  0
VERTEX
  8
0
  6
CONTINUOUS
 62
     7
 10
195.5619311557648
 20
42.643480843436
 42
0.06944105944937547
  0
VERTEX
  8
0
  6
CONTINUOUS
 62
     7
 10
194.8000411987305
 20
42.75003051757813
 42
0
  0
SEQEND
  8
0
  0
POLYLINE
  8
0
  6
CONTINUOUS
 62
     7
 66
     1
 10
0
 20
0
  0
VERTEX
  8
0
  6
CONTINUOUS
 62
     7
 10
194.8000411987305
 20
42.75003051757813
 42
0.01434921122836096
  0
VERTEX
  8
0
  6
CONTINUOUS
 62
     7
 10
194.6411603943985
 20
42.74546953337296
 42
0.01426055417925349
  0
VERTEX
  8
0
  6
CONTINUOUS
 62
     7
 10
194.4835495860741
 20
42.73189421576506
 42
0.01417567099906462
  0
VERTEX
  8
0
  6
CONTINUOUS
 62
     7
 10
194.3274507718433
 20
42.7094515996908
 42
0.01415086294534762
  0
VERTEX
  8
0
  6
CONTINUOUS
 62
     7
 10
194.1724888458204
 20
42.67812840329664
 42
0.01410157484869051
  0
VERTEX
  8
0
  6
CONTINUOUS
 62
     7
 10
194.0192270766661
 20
42.63802090818167
 42
0.014029571022676
  0
VERTEX
  8
0
  6
CONTINUOUS
 62
     7
 10
193.8682104493915
 20
42.5892769355716
 42
0.01393699065544334
  0
VERTEX
  8
0
  6
CONTINUOUS
 62
     7
 10
193.7199601856734
 20
42.53209163313218
 42
0.01382627070616793
  0
VERTEX
  8
0
  6
CONTINUOUS
 62
     7
 10
193.5749691240359
 20
42.46670248479246
 42
0.01370006114818565
  0
VERTEX
  8
0
  6
CONTINUOUS
 62
     7
 10
193.4336980772325
 20
42.39338376110804
 42
0.01356113835686097
  0
VERTEX
  8
0
  6
CONTINUOUS
 62
     7
 10
193.2965732307806
 20
42.31244064437642
 42
0.01332236641846606
  0
VERTEX
  8
0
  6
CONTINUOUS
 62
     7
 10
193.1648634112724
 20
42.2248224498151
 42
0.01328779528003126
  0
VERTEX
  8
0
  6
CONTINUOUS
 62
     7
 10
193.0368426804284
 20
42.12945949515938
 42
0.0131548642026874
  0
VERTEX
  8
0
  6
CONTINUOUS
 62
     7
 10
192.913790481479
 20
42.02725428539756
 42
0.0129383298044611
  0
VERTEX
  8
0
  6
CONTINUOUS
 62
     7
 10
192.7967462371961
 20
41.91924005022141
 42
0.01278033756044008
  0
VERTEX
  8
0
  6
CONTINUOUS
 62
     7
 10
192.6854098421894
 20
41.80535117291677
 42
0.01262532633800536
  0
VERTEX
  8
0
  6
CONTINUOUS
 62
     7
 10
192.5800004159881
 20
41.68595422324204
 42
0
  0
SEQEND
  8
0
  0
POLYLINE
  8
0
  6
CONTINUOUS
 62
     7
 66
     1
 10
0
 20
0
 70
     1
  0
VERTEX
  8
0
  6
CONTINUOUS
 62
     7
 10
193.6999435424805
 20
42.00003051757813
 42
0.1103787109724296
  0
VERTEX
  8
0
  6
CONTINUOUS
 62
     7
 10
192.787789699662
 20
41.79500593658675
 42
0.1025043466168707
  0
VERTEX
  8
0
  6
CONTINUOUS
 62
     7
 10
192.0404602184387
 20
41.23099361201808
 42
0.09328767207034303
  0
VERTEX
  8
0
  6
CONTINUOUS
 62
     7
 10
191.5628539221445
 20
40.42410323203707
 42
0.08782063036277188
  0
VERTEX
  8
0
  6
CONTINUOUS
 62
     7
 10
191.3999557495117
 20
39.5
 42
0.08777189644119583
  0
VERTEX
  8
0
  6
CONTINUOUS
 62
     7
 10
191.5626755496088
 20
38.57638174109867
 42
0.09326227064185044
  0
VERTEX
  8
0
  6
CONTINUOUS
 62
     7
 10
192.0399680325358
 20
37.76957453183691
 42
0.1026338005985815
  0
VERTEX
  8
0
  6
CONTINUOUS
 62
     7
 10
192.7881756306582
 20
37.20484711589825
 42
0.1103311348377424
  0
VERTEX
  8
0
  6
CONTINUOUS
 62
     7
 10
193.6999435424805
 20
37.00003051757813
 42
0.1103779373159419
  0
VERTEX
  8
0
  6
CONTINUOUS
 62
     7
 10
194.612099441802
 20
37.20504678157486
 42
0.1025059032276614
  0
VERTEX
  8
0
  6
CONTINUOUS
 62
     7
 10
195.3594328303825
 20
37.76905361487656
 42
0.09328961496206342
  0
VERTEX
  8
0
  6
CONTINUOUS
 62
     7
 10
195.8370388313753
 20
38.57594387483486
 42
0.08782275294758035
  0
VERTEX
  8
0
  6
CONTINUOUS
 62
     7
 10
195.9999313354492
 20
39.50006103515625
 42
0.08777275603783599
  0
VERTEX
  8
0
  6
CONTINUOUS
 62
     7
 10
195.8372217085321
 20
40.4236810126328
 42
0.09326411872494467
  0
VERTEX
  8
0
  6
CONTINUOUS
 62
     7
 10
195.3599336794519
 20
41.23049061252167
 42
0.1026352213602674
  0
VERTEX
  8
0
  6
CONTINUOUS
 62
     7
 10
194.611725475043
 20
41.79521666688311
 42
0.1103318526698048
  0
SEQEND
  8
0
  0
TEXT
  8
0
  6
CONTINUOUS
 62
     7
 10
-1.285500049591065
 20
-11.79999995231628
 40
3.599999904632568
 41
1.008382419577613
  1
SR35SB
  0
ENDSEC
  0
EOF
